ISO-10303-21;
HEADER;
FILE_DESCRIPTION (( 'STEP AP203' ),
    '1' );
FILE_NAME ('378074.step',
    '2021-12-17T07:11:08',
    ( '' ),
    ( '' ),
    'SwSTEP 2.0',
    'SolidWorks 2019',
    '' );
FILE_SCHEMA (( 'CONFIG_CONTROL_DESIGN' ));
ENDSEC;

DATA;
#1 = DIRECTION ( 'NONE',  ( -1.000000000000000000, 0.0000000000000000000, 3.491481338843133355E-15 ) ) ;
#2 = APPROVAL_ROLE ( '' ) ;
#3 = FACE_OUTER_BOUND ( 'NONE', #101, .T. ) ;
#4 = DATE_AND_TIME ( #201, #5 ) ;
#5 = LOCAL_TIME ( 8, 11, 8.000000000000000000, #273 ) ;
#6 = PERSON_AND_ORGANIZATION_ROLE ( 'design_owner' ) ;
#7 = DIRECTION ( 'NONE',  ( 3.491481338843133355E-15, 0.0000000000000000000, 1.000000000000000000 ) ) ;
#8 = ORIENTED_EDGE ( 'NONE', *, *, #24, .T. ) ;
#9 = PERSON_AND_ORGANIZATION ( #43, #155 ) ;
#10 = EDGE_LOOP ( 'NONE', ( #129 ) ) ;
#11 = ADVANCED_FACE ( 'NONE', ( #202 ), #183, .F. ) ;
#12 = CC_DESIGN_PERSON_AND_ORGANIZATION_ASSIGNMENT ( #137, #106, ( #148 ) ) ;
#13 = ORIENTED_EDGE ( 'NONE', *, *, #336, .F. ) ;
#14 = APPROVAL_DATE_TIME ( #162, #163 ) ;
#15 = EDGE_LOOP ( 'NONE', ( #96 ) ) ;
#16 = ADVANCED_FACE ( 'NONE', ( #215 ), #327, .F. ) ;
#17 = CARTESIAN_POINT ( 'NONE',  ( 6.891347711147893857E-16, -2.972160204075758606E-17, 0.1973760430703396518 ) ) ;
#18 = CARTESIAN_POINT ( 'NONE',  ( -0.2599999999999997313, 0.0000000000000000000, 0.09118802153517076292 ) ) ;
#19 = VERTEX_POINT ( 'NONE', #135 ) ;
#20 = EDGE_LOOP ( 'NONE', ( #98 ) ) ;
#21 = DIRECTION ( 'NONE',  ( -1.000000000000000000, 0.0000000000000000000, 3.491481338843132961E-15 ) ) ;
#22 = CARTESIAN_POINT ( 'NONE',  ( -1.499999999999971134, 0.0000000000000000000, 6.951260833767656244 ) ) ;
#23 = CIRCLE ( 'NONE', #147, 0.1800000000000000766 ) ;
#24 = EDGE_CURVE ( 'NONE', #111, #111, #44, .T. ) ;
#25 = FACE_BOUND ( 'NONE', #346, .T. ) ;
#26 = DIRECTION ( 'NONE',  ( -3.491481338843133355E-15, 0.0000000000000000000, -1.000000000000000000 ) ) ;
#27 = CARTESIAN_POINT ( 'NONE',  ( -0.1799999999999993827, 0.0000000000000000000, 0.1973760430703402624 ) ) ;
#28 = DIRECTION ( 'NONE',  ( -1.000000000000000000, 0.0000000000000000000, 3.491481338843132961E-15 ) ) ;
#29 = ADVANCED_FACE ( 'NONE', ( #289, #71 ), #192, .F. ) ;
#30 = DIRECTION ( 'NONE',  ( -3.491481338843133355E-15, 0.0000000000000000000, -1.000000000000000000 ) ) ;
#31 = CIRCLE ( 'NONE', #259, 0.1549999999999998324 ) ;
#32 = LOCAL_TIME ( 8, 11, 8.000000000000000000, #158 ) ;
#33 = CYLINDRICAL_SURFACE ( 'NONE', #219, 0.1800000000000000488 ) ;
#34 = DIRECTION ( 'NONE',  ( 1.000000000000000000, 0.0000000000000000000, -3.491481338843133355E-15 ) ) ;
#35 = AXIS2_PLACEMENT_3D ( 'NONE', #150, #149, #81 ) ;
#36 = EDGE_CURVE ( 'NONE', #77, #77, #275, .T. ) ;
#37 = CC_DESIGN_PERSON_AND_ORGANIZATION_ASSIGNMENT ( #347, #217, ( #127 ) ) ;
#38 = ORIENTED_EDGE ( 'NONE', *, *, #196, .F. ) ;
#39 = EDGE_CURVE ( 'NONE', #269, #269, #293, .T. ) ;
#40 = AXIS2_PLACEMENT_3D ( 'NONE', #154, #145, #34 ) ;
#41 = ORIENTED_EDGE ( 'NONE', *, *, #336, .T. ) ;
#42 = ORIENTED_EDGE ( 'NONE', *, *, #93, .T. ) ;
#43 = PERSON ( 'UNSPECIFIED', 'UNSPECIFIED', 'UNSPECIFIED', ('UNSPECIFIED'), ('UNSPECIFIED'), ('UNSPECIFIED') ) ;
#44 = CIRCLE ( 'NONE', #165, 1.199999999999995293 ) ;
#45 = LOCAL_TIME ( 8, 11, 8.000000000000000000, #329 ) ;
#46 = CARTESIAN_POINT ( 'NONE',  ( 2.427019748253091456E-14, 0.0000000000000000000, 6.951260833767650915 ) ) ;
#47 = CARTESIAN_POINT ( 'NONE',  ( 6.284666409917640040E-15, 0.0000000000000000000, 1.800000000000000044 ) ) ;
#48 = CARTESIAN_POINT ( 'NONE',  ( 2.427019748253091456E-14, 0.0000000000000000000, 6.951260833767650915 ) ) ;
#49 = CONICAL_SURFACE ( 'NONE', #281, 0.1800000000000000488, 1.047197551196600518 ) ;
#50 = DATE_AND_TIME ( #302, #45 ) ;
#51 = EDGE_LOOP ( 'NONE', ( #131 ) ) ;
#52 = DIRECTION ( 'NONE',  ( -3.491481338843133355E-15, 0.0000000000000000000, -1.000000000000000000 ) ) ;
#53 = DIRECTION ( 'NONE',  ( -1.000000000000000000, 0.0000000000000000000, 3.501069515317773683E-15 ) ) ;
#54 = APPROVAL ( #118, 'UNSPECIFIED' ) ;
#55 = CYLINDRICAL_SURFACE ( 'NONE', #344, 0.2600000000000000089 ) ;
#56 = AXIS2_PLACEMENT_3D ( 'NONE', #297, #26, #222 ) ;
#57 = LOCAL_TIME ( 8, 11, 8.000000000000000000, #226 ) ;
#58 = CARTESIAN_POINT ( 'NONE',  ( 1.234242120427809453E-15, 0.0000000000000000000, 0.3535009930303000814 ) ) ;
#59 = FACE_OUTER_BOUND ( 'NONE', #258, .T. ) ;
#60 = DIRECTION ( 'NONE',  ( 1.000000000000000000, 0.0000000000000000000, 0.0000000000000000000 ) ) ;
#61 = DIRECTION ( 'NONE',  ( -3.491481338843133355E-15, 0.0000000000000000000, -1.000000000000000000 ) ) ;
#62 = ADVANCED_FACE ( 'NONE', ( #352, #103 ), #49, .T. ) ;
#63 = CC_DESIGN_APPROVAL ( #163, ( #148 ) ) ;
#64 = ORIENTED_EDGE ( 'NONE', *, *, #320, .F. ) ;
#65 = CARTESIAN_POINT ( 'NONE',  ( 0.0000000000000000000, 0.0000000000000000000, 0.0000000000000000000 ) ) ;
#66 = ORIENTED_EDGE ( 'NONE', *, *, #357, .T. ) ;
#67 = AXIS2_PLACEMENT_3D ( 'NONE', #176, #272, #28 ) ;
#68 = APPROVAL_PERSON_ORGANIZATION ( #279, #54, #341 ) ;
#69 = EDGE_LOOP ( 'NONE', ( #321 ) ) ;
#70 = MANIFOLD_SOLID_BREP ( 'Corps-Déplacer/Copier1[2]', #79 ) ;
#71 = FACE_OUTER_BOUND ( 'NONE', #317, .T. ) ;
#72 = CC_DESIGN_DATE_AND_TIME_ASSIGNMENT ( #50, #340, ( #127 ) ) ;
#73 = VERTEX_POINT ( 'NONE', #209 ) ;
#74 = ADVANCED_FACE ( 'NONE', ( #59, #3 ), #33, .T. ) ;
#75 = CARTESIAN_POINT ( 'NONE',  ( 7.188328276030265863E-15, 0.0000000000000000000, 2.058819045102513456 ) ) ;
#76 = DIRECTION ( 'NONE',  ( -1.000000000000000000, 0.0000000000000000000, 3.463423606550915452E-15 ) ) ;
#77 = VERTEX_POINT ( 'NONE', #27 ) ;
#78 = CARTESIAN_POINT ( 'NONE',  ( -0.1800000000000000488, 0.0000000000000000000, 6.352429045697985644E-16 ) ) ;
#79 = CLOSED_SHELL ( 'NONE', ( #172, #74, #177, #136, #62, #294, #123 ) ) ;
#80 = APPROVAL_STATUS ( 'not_yet_approved' ) ;
#81 = DIRECTION ( 'NONE',  ( -1.000000000000000000, 0.0000000000000000000, 3.492381997910038260E-15 ) ) ;
#82 = FACE_OUTER_BOUND ( 'NONE', #51, .T. ) ;
#83 = DATE_TIME_ROLE ( 'creation_date' ) ;
#84 = DESIGN_CONTEXT ( 'detailed design', #290, 'design' ) ;
#85 = FACE_OUTER_BOUND ( 'NONE', #95, .T. ) ;
#86 = CIRCLE ( 'NONE', #133, 0.1890741737109297715 ) ;
#87 = DIRECTION ( 'NONE',  ( -3.491481338843133355E-15, 0.0000000000000000000, -1.000000000000000000 ) ) ;
#88 = PERSON_AND_ORGANIZATION ( #43, #155 ) ;
#89 = FACE_OUTER_BOUND ( 'NONE', #185, .T. ) ;
#90 = EDGE_LOOP ( 'NONE', ( #124 ) ) ;
#91 = ADVANCED_BREP_SHAPE_REPRESENTATION ( '378074', ( #194, #70, #140 ), #171 ) ;
#92 = AXIS2_PLACEMENT_3D ( 'NONE', #339, #7, #122 ) ;
#93 = EDGE_CURVE ( 'NONE', #292, #292, #213, .T. ) ;
#94 = APPROVAL_PERSON_ORGANIZATION ( #9, #188, #2 ) ;
#95 = EDGE_LOOP ( 'NONE', ( #117 ) ) ;
#96 = ORIENTED_EDGE ( 'NONE', *, *, #39, .F. ) ;
#97 = EDGE_LOOP ( 'NONE', ( #181 ) ) ;
#98 = ORIENTED_EDGE ( 'NONE', *, *, #36, .F. ) ;
#99 = LOCAL_TIME ( 8, 11, 8.000000000000000000, #282 ) ;
#100 = CC_DESIGN_PERSON_AND_ORGANIZATION_ASSIGNMENT ( #179, #6, ( #220 ) ) ;
#101 = EDGE_LOOP ( 'NONE', ( #204 ) ) ;
#102 = CARTESIAN_POINT ( 'NONE',  ( 6.891347711147893857E-16, 0.0000000000000000000, 0.1973760430703396518 ) ) ;
#103 = FACE_BOUND ( 'NONE', #348, .T. ) ;
#104 = DIRECTION ( 'NONE',  ( -3.491481338843133355E-15, 0.0000000000000000000, -1.000000000000000000 ) ) ;
#105 = EDGE_CURVE ( 'NONE', #218, #218, #23, .T. ) ;
#106 = PERSON_AND_ORGANIZATION_ROLE ( 'creator' ) ;
#107 = AXIS2_PLACEMENT_3D ( 'NONE', #180, #360, #280 ) ;
#108 = DIRECTION ( 'NONE',  ( 1.000000000000000000, 0.0000000000000000000, -3.491481338843133355E-15 ) ) ;
#109 =( NAMED_UNIT ( * ) PLANE_ANGLE_UNIT ( ) SI_UNIT ( $, .RADIAN. ) );
#110 = DIRECTION ( 'NONE',  ( -3.491481338843133355E-15, 0.0000000000000000000, -1.000000000000000000 ) ) ;
#111 = VERTEX_POINT ( 'NONE', #249 ) ;
#112 = CYLINDRICAL_SURFACE ( 'NONE', #56, 0.1800000000000000488 ) ;
#113 = CARTESIAN_POINT ( 'NONE',  ( 1.571166602479410651E-16, 0.0000000000000000000, 0.04500000000000002609 ) ) ;
#114 = AXIS2_PLACEMENT_3D ( 'NONE', #119, #30, #231 ) ;
#115 = FACE_OUTER_BOUND ( 'NONE', #261, .T. ) ;
#116 = CARTESIAN_POINT ( 'NONE',  ( 3.183812755160713011E-16, 0.0000000000000000000, 0.09118802153516986087 ) ) ;
#117 = ORIENTED_EDGE ( 'NONE', *, *, #184, .F. ) ;
#118 = APPROVAL_STATUS ( 'not_yet_approved' ) ;
#119 = CARTESIAN_POINT ( 'NONE',  ( 1.326762908760390423E-13, 0.0000000000000000000, 38.00000000000000000 ) ) ;
#120 = DIRECTION ( 'NONE',  ( -3.491481338843133355E-15, 0.0000000000000000000, -1.000000000000000000 ) ) ;
#121 = AXIS2_PLACEMENT_3D ( 'NONE', #334, #312, #228 ) ;
#122 = DIRECTION ( 'NONE',  ( 1.000000000000000000, 0.0000000000000000000, -3.492381997910038260E-15 ) ) ;
#123 = ADVANCED_FACE ( 'NONE', ( #278 ), #234, .T. ) ;
#124 = ORIENTED_EDGE ( 'NONE', *, *, #36, .T. ) ;
#125 = EDGE_LOOP ( 'NONE', ( #64 ) ) ;
#126 = CLOSED_SHELL ( 'NONE', ( #16, #214, #223, #29, #363, #232, #161, #11 ) ) ;
#127 = SECURITY_CLASSIFICATION ( '', '', #130 ) ;
#128 = EDGE_LOOP ( 'NONE', ( #260 ) ) ;
#129 = ORIENTED_EDGE ( 'NONE', *, *, #93, .F. ) ;
#130 = SECURITY_CLASSIFICATION_LEVEL ( 'unclassified' ) ;
#131 = ORIENTED_EDGE ( 'NONE', *, *, #39, .T. ) ;
#132 = APPROVAL_DATE_TIME ( #263, #188 ) ;
#133 = AXIS2_PLACEMENT_3D ( 'NONE', #75, #167, #271 ) ;
#134 = CARTESIAN_POINT ( 'NONE',  ( 1.326762908760390423E-13, 0.0000000000000000000, 38.00000000000000000 ) ) ;
#135 = CARTESIAN_POINT ( 'NONE',  ( -0.1799999999999998823, 0.0000000000000000000, 0.04500000000000065059 ) ) ;
#136 = ADVANCED_FACE ( 'NONE', ( #85, #335 ), #55, .T. ) ;
#137 = PERSON_AND_ORGANIZATION ( #43, #155 ) ;
#138 = FACE_OUTER_BOUND ( 'NONE', #69, .T. ) ;
#139 = AXIS2_PLACEMENT_3D ( 'NONE', #170, #104, #211 ) ;
#140 = AXIS2_PLACEMENT_3D ( 'NONE', #333, #254, #60 ) ;
#141 = VERTEX_POINT ( 'NONE', #190 ) ;
#142 = CARTESIAN_POINT ( 'NONE',  ( -0.2599999999999996758, 0.0000000000000000000, 0.1061880215351707901 ) ) ;
#143 = DIRECTION ( 'NONE',  ( -1.000000000000000000, 0.0000000000000000000, 2.797941090285175647E-15 ) ) ;
#144 = CARTESIAN_POINT ( 'NONE',  ( -0.1799999999999994937, 0.0000000000000000000, 0.1523760430703402502 ) ) ;
#145 = DIRECTION ( 'NONE',  ( 3.491481338843133355E-15, 0.0000000000000000000, 1.000000000000000000 ) ) ;
#146 = PRODUCT_RELATED_PRODUCT_CATEGORY ( 'detail', '', ( #220 ) ) ;
#147 = AXIS2_PLACEMENT_3D ( 'NONE', #195, #120, #257 ) ;
#148 = PRODUCT_DEFINITION_FORMATION_WITH_SPECIFIED_SOURCE ( 'ANY', '', #220, .NOT_KNOWN. ) ;
#149 = DIRECTION ( 'NONE',  ( -3.491481338843133355E-15, 0.0000000000000000000, -1.000000000000000000 ) ) ;
#150 = CARTESIAN_POINT ( 'NONE',  ( 3.707534955987184297E-16, 0.0000000000000000000, 0.1061880215351698881 ) ) ;
#151 = APPROVAL_STATUS ( 'not_yet_approved' ) ;
#152 = APPLICATION_PROTOCOL_DEFINITION ( 'international standard', 'config_control_design', 1994, #173 ) ;
#153 = FACE_BOUND ( 'NONE', #159, .T. ) ;
#154 = CARTESIAN_POINT ( 'NONE',  ( 6.891347711147893857E-16, -2.972160204075758606E-17, 0.1973760430703396518 ) ) ;
#155 = ORGANIZATION ( 'UNSPECIFIED', 'UNSPECIFIED', '' ) ;
#156 = APPROVAL_DATE_TIME ( #277, #54 ) ;
#157 = ORIENTED_EDGE ( 'NONE', *, *, #205, .T. ) ;
#158 = COORDINATED_UNIVERSAL_TIME_OFFSET ( 1, 0, .AHEAD. ) ;
#159 = EDGE_LOOP ( 'NONE', ( #345 ) ) ;
#160 = CC_DESIGN_SECURITY_CLASSIFICATION ( #127, ( #148 ) ) ;
#161 = ADVANCED_FACE ( 'NONE', ( #274, #338 ), #262, .T. ) ;
#162 = DATE_AND_TIME ( #359, #99 ) ;
#163 = APPROVAL ( #80, 'UNSPECIFIED' ) ;
#164 = EDGE_LOOP ( 'NONE', ( #343 ) ) ;
#165 = AXIS2_PLACEMENT_3D ( 'NONE', #134, #296, #295 ) ;
#166 = CC_DESIGN_APPROVAL ( #188, ( #127 ) ) ;
#167 = DIRECTION ( 'NONE',  ( -3.491481338843133355E-15, 0.0000000000000000000, -1.000000000000000000 ) ) ;
#168 = SHAPE_DEFINITION_REPRESENTATION ( #351, #91 ) ;
#169 = DIRECTION ( 'NONE',  ( -3.491481338843133355E-15, 0.0000000000000000000, -1.000000000000000000 ) ) ;
#170 = CARTESIAN_POINT ( 'NONE',  ( 2.365919782978951696E-32, 0.0000000000000000000, 6.776263578034402713E-18 ) ) ;
#171 =( GEOMETRIC_REPRESENTATION_CONTEXT ( 3 ) GLOBAL_UNCERTAINTY_ASSIGNED_CONTEXT ( ( #227 ) ) GLOBAL_UNIT_ASSIGNED_CONTEXT ( ( #303, #109, #353 ) ) REPRESENTATION_CONTEXT ( 'NONE', 'WORKASPACE' ) );
#172 = ADVANCED_FACE ( 'NONE', ( #200 ), #197, .F. ) ;
#173 = APPLICATION_CONTEXT ( 'configuration controlled 3d designs of mechanical parts and assemblies' ) ;
#174 = DIRECTION ( 'NONE',  ( -3.491481338843133355E-15, 0.0000000000000000000, -1.000000000000000000 ) ) ;
#175 = DIRECTION ( 'NONE',  ( -1.000000000000000000, 0.0000000000000000000, 3.491481338843133750E-15 ) ) ;
#176 = CARTESIAN_POINT ( 'NONE',  ( 0.0000000000000000000, 0.0000000000000000000, 0.0000000000000000000 ) ) ;
#177 = ADVANCED_FACE ( 'NONE', ( #153, #199 ), #361, .T. ) ;
#178 = DIRECTION ( 'NONE',  ( -1.000000000000000000, 0.0000000000000000000, 3.497426362856469262E-15 ) ) ;
#179 = PERSON_AND_ORGANIZATION ( #43, #155 ) ;
#180 = CARTESIAN_POINT ( 'NONE',  ( 5.320181108668483453E-16, 0.0000000000000000000, 0.1523760430703396396 ) ) ;
#181 = ORIENTED_EDGE ( 'NONE', *, *, #350, .F. ) ;
#182 = ORIENTED_EDGE ( 'NONE', *, *, #320, .T. ) ;
#183 = PLANE ( 'NONE',  #252 ) ;
#184 = EDGE_CURVE ( 'NONE', #248, #248, #332, .T. ) ;
#185 = EDGE_LOOP ( 'NONE', ( #314 ) ) ;
#186 = AXIS2_PLACEMENT_3D ( 'NONE', #255, #256, #178 ) ;
#187 = APPROVAL_PERSON_ORGANIZATION ( #230, #163, #313 ) ;
#188 = APPROVAL ( #151, 'UNSPECIFIED' ) ;
#189 = EDGE_LOOP ( 'NONE', ( #38 ) ) ;
#190 = CARTESIAN_POINT ( 'NONE',  ( -0.1890741737109225828, 0.0000000000000000000, 2.058819045102514345 ) ) ;
#191 = FACE_OUTER_BOUND ( 'NONE', #287, .T. ) ;
#192 = TOROIDAL_SURFACE ( 'NONE', #198, 1.154999999999999805, 1.000000000000000000 ) ;
#193 = VERTEX_POINT ( 'NONE', #22 ) ;
#194 = MANIFOLD_SOLID_BREP ( 'Corps-Déplacer/Copier1[1]', #126 ) ;
#195 = CARTESIAN_POINT ( 'NONE',  ( 6.891347711147893857E-16, 0.0000000000000000000, 0.1973760430703396518 ) ) ;
#196 = EDGE_CURVE ( 'NONE', #73, #73, #325, .T. ) ;
#197 = PLANE ( 'NONE',  #121 ) ;
#198 = AXIS2_PLACEMENT_3D ( 'NONE', #47, #268, #21 ) ;
#199 = FACE_OUTER_BOUND ( 'NONE', #128, .T. ) ;
#200 = FACE_OUTER_BOUND ( 'NONE', #316, .T. ) ;
#201 = CALENDAR_DATE ( 2021, 17, 12 ) ;
#202 = FACE_OUTER_BOUND ( 'NONE', #244, .T. ) ;
#203 = TOROIDAL_SURFACE ( 'NONE', #246, 0.6549999999999999156, 0.5000000000000000000 ) ;
#204 = ORIENTED_EDGE ( 'NONE', *, *, #323, .T. ) ;
#205 = EDGE_CURVE ( 'NONE', #358, #358, #362, .T. ) ;
#206 = ORIENTED_EDGE ( 'NONE', *, *, #105, .F. ) ;
#207 = AXIS2_PLACEMENT_3D ( 'NONE', #17, #355, #108 ) ;
#208 = CC_DESIGN_APPROVAL ( #54, ( #315 ) ) ;
#209 = CARTESIAN_POINT ( 'NONE',  ( -0.1549999999999986111, 0.0000000000000000000, 0.3535009930303006365 ) ) ;
#210 = CARTESIAN_POINT ( 'NONE',  ( 5.320181108668483453E-16, 0.0000000000000000000, 0.1523760430703396396 ) ) ;
#211 = DIRECTION ( 'NONE',  ( -1.000000000000000000, 0.0000000000000000000, 3.491481338843133355E-15 ) ) ;
#212 = DIRECTION ( 'NONE',  ( -3.491481338843133355E-15, 0.0000000000000000000, -1.000000000000000000 ) ) ;
#213 = CIRCLE ( 'NONE', #35, 0.2600000000000000089 ) ;
#214 = ADVANCED_FACE ( 'NONE', ( #115, #89 ), #203, .F. ) ;
#215 = FACE_OUTER_BOUND ( 'NONE', #164, .T. ) ;
#216 = CARTESIAN_POINT ( 'NONE',  ( 6.284666409917640040E-15, 0.0000000000000000000, 1.800000000000000044 ) ) ;
#217 = PERSON_AND_ORGANIZATION_ROLE ( 'classification_officer' ) ;
#218 = VERTEX_POINT ( 'NONE', #328 ) ;
#219 = AXIS2_PLACEMENT_3D ( 'NONE', #65, #87, #1 ) ;
#220 = PRODUCT ( '378074', '378074', '', ( #306 ) ) ;
#221 = FACE_OUTER_BOUND ( 'NONE', #97, .T. ) ;
#222 = DIRECTION ( 'NONE',  ( -1.000000000000000000, 0.0000000000000000000, 3.491481338843133355E-15 ) ) ;
#223 = ADVANCED_FACE ( 'NONE', ( #253, #224 ), #342, .T. ) ;
#224 = FACE_OUTER_BOUND ( 'NONE', #241, .T. ) ;
#225 = ORIENTED_EDGE ( 'NONE', *, *, #205, .F. ) ;
#226 = COORDINATED_UNIVERSAL_TIME_OFFSET ( 1, 0, .AHEAD. ) ;
#227 = UNCERTAINTY_MEASURE_WITH_UNIT (LENGTH_MEASURE( 1.000000000000000082E-05 ), #303, 'distance_accuracy_value', 'NONE');
#228 = DIRECTION ( 'NONE',  ( 1.000000000000000000, 0.0000000000000000000, -3.491481338843133355E-15 ) ) ;
#229 = CIRCLE ( 'NONE', #270, 1.499999999999995559 ) ;
#230 = PERSON_AND_ORGANIZATION ( #43, #155 ) ;
#231 = DIRECTION ( 'NONE',  ( -1.000000000000000000, 0.0000000000000000000, 5.782411586589379332E-15 ) ) ;
#232 = ADVANCED_FACE ( 'NONE', ( #221, #82 ), #276, .T. ) ;
#233 = CALENDAR_DATE ( 2021, 17, 12 ) ;
#234 = PLANE ( 'NONE',  #40 ) ;
#235 = EDGE_LOOP ( 'NONE', ( #8 ) ) ;
#236 = CALENDAR_DATE ( 2021, 17, 12 ) ;
#237 = AXIS2_PLACEMENT_3D ( 'NONE', #251, #212, #331 ) ;
#238 = EDGE_LOOP ( 'NONE', ( #42 ) ) ;
#239 = CC_DESIGN_DATE_AND_TIME_ASSIGNMENT ( #4, #83, ( #315 ) ) ;
#240 = ORIENTED_EDGE ( 'NONE', *, *, #24, .F. ) ;
#241 = EDGE_LOOP ( 'NONE', ( #182 ) ) ;
#242 = AXIS2_PLACEMENT_3D ( 'NONE', #116, #61, #310 ) ;
#243 = DIRECTION ( 'NONE',  ( -3.491481338843133355E-15, 0.0000000000000000000, -1.000000000000000000 ) ) ;
#244 = EDGE_LOOP ( 'NONE', ( #240 ) ) ;
#245 = CARTESIAN_POINT ( 'NONE',  ( -1.499999999999863665, 0.0000000000000000000, 37.70000000000000284 ) ) ;
#246 = AXIS2_PLACEMENT_3D ( 'NONE', #58, #52, #175 ) ;
#247 = VERTEX_POINT ( 'NONE', #265 ) ;
#248 = VERTEX_POINT ( 'NONE', #18 ) ;
#249 = CARTESIAN_POINT ( 'NONE',  ( -1.199999999999862732, 0.0000000000000000000, 38.00000000000000711 ) ) ;
#250 = DIRECTION ( 'NONE',  ( -3.491481338843133355E-15, 0.0000000000000000000, -1.000000000000000000 ) ) ;
#251 = CARTESIAN_POINT ( 'NONE',  ( 0.0000000000000000000, 0.0000000000000000000, 0.0000000000000000000 ) ) ;
#252 = AXIS2_PLACEMENT_3D ( 'NONE', #285, #169, #349 ) ;
#253 = FACE_OUTER_BOUND ( 'NONE', #189, .T. ) ;
#254 = DIRECTION ( 'NONE',  ( 0.0000000000000000000, 0.0000000000000000000, 1.000000000000000000 ) ) ;
#255 = CARTESIAN_POINT ( 'NONE',  ( 1.234242120427809453E-15, 0.0000000000000000000, 0.3535009930303000814 ) ) ;
#256 = DIRECTION ( 'NONE',  ( -3.491481338843133355E-15, 0.0000000000000000000, -1.000000000000000000 ) ) ;
#257 = DIRECTION ( 'NONE',  ( -1.000000000000000000, 0.0000000000000000000, 3.463423606550915452E-15 ) ) ;
#258 = EDGE_LOOP ( 'NONE', ( #13 ) ) ;
#259 = AXIS2_PLACEMENT_3D ( 'NONE', #216, #300, #143 ) ;
#260 = ORIENTED_EDGE ( 'NONE', *, *, #184, .T. ) ;
#261 = EDGE_LOOP ( 'NONE', ( #206 ) ) ;
#262 = CONICAL_SURFACE ( 'NONE', #114, 1.199999999999995293, 0.7853981633974453924 ) ;
#263 = DATE_AND_TIME ( #236, #32 ) ;
#264 = AXIS2_PLACEMENT_3D ( 'NONE', #48, #324, #356 ) ;
#265 = CARTESIAN_POINT ( 'NONE',  ( -0.1549999999999935596, 0.0000000000000000000, 1.800000000000000488 ) ) ;
#266 = DIRECTION ( 'NONE',  ( -1.000000000000000000, 0.0000000000000000000, 3.469446951953624444E-15 ) ) ;
#267 = FACE_OUTER_BOUND ( 'NONE', #90, .T. ) ;
#268 = DIRECTION ( 'NONE',  ( -3.491481338843133355E-15, 0.0000000000000000000, -1.000000000000000000 ) ) ;
#269 = VERTEX_POINT ( 'NONE', #245 ) ;
#270 = AXIS2_PLACEMENT_3D ( 'NONE', #46, #299, #266 ) ;
#271 = DIRECTION ( 'NONE',  ( -1.000000000000000000, 0.0000000000000000000, 4.587415197775708050E-15 ) ) ;
#272 = DIRECTION ( 'NONE',  ( -3.491481338843133355E-15, 0.0000000000000000000, -1.000000000000000000 ) ) ;
#273 = COORDINATED_UNIVERSAL_TIME_OFFSET ( 1, 0, .AHEAD. ) ;
#274 = FACE_OUTER_BOUND ( 'NONE', #15, .T. ) ;
#275 = CIRCLE ( 'NONE', #301, 0.1800000000000000766 ) ;
#276 = CYLINDRICAL_SURFACE ( 'NONE', #237, 1.499999999999995337 ) ;
#277 = DATE_AND_TIME ( #233, #57 ) ;
#278 = FACE_OUTER_BOUND ( 'NONE', #20, .T. ) ;
#279 = PERSON_AND_ORGANIZATION ( #43, #155 ) ;
#280 = DIRECTION ( 'NONE',  ( -1.000000000000000000, 0.0000000000000000000, 3.463423606550915846E-15 ) ) ;
#281 = AXIS2_PLACEMENT_3D ( 'NONE', #210, #174, #311 ) ;
#282 = COORDINATED_UNIVERSAL_TIME_OFFSET ( 1, 0, .AHEAD. ) ;
#283 = CC_DESIGN_PERSON_AND_ORGANIZATION_ASSIGNMENT ( #88, #337, ( #315 ) ) ;
#284 = CC_DESIGN_PERSON_AND_ORGANIZATION_ASSIGNMENT ( #318, #326, ( #148 ) ) ;
#285 = CARTESIAN_POINT ( 'NONE',  ( 1.326762908760390423E-13, 0.0000000000000000000, 38.00000000000000000 ) ) ;
#286 = CIRCLE ( 'NONE', #139, 0.1800000000000000488 ) ;
#287 = EDGE_LOOP ( 'NONE', ( #225 ) ) ;
#288 = CONICAL_SURFACE ( 'NONE', #264, 1.499999999999995559, 0.2617993877991426910 ) ;
#289 = FACE_OUTER_BOUND ( 'NONE', #125, .T. ) ;
#290 = APPLICATION_CONTEXT ( 'configuration controlled 3d designs of mechanical parts and assemblies' ) ;
#291 = ORIENTED_EDGE ( 'NONE', *, *, #357, .F. ) ;
#292 = VERTEX_POINT ( 'NONE', #142 ) ;
#293 = CIRCLE ( 'NONE', #319, 1.499999999999995337 ) ;
#294 = ADVANCED_FACE ( 'NONE', ( #191, #267 ), #112, .T. ) ;
#295 = DIRECTION ( 'NONE',  ( -1.000000000000000000, 0.0000000000000000000, 5.782411586589379332E-15 ) ) ;
#296 = DIRECTION ( 'NONE',  ( -3.491481338843133355E-15, 0.0000000000000000000, -1.000000000000000000 ) ) ;
#297 = CARTESIAN_POINT ( 'NONE',  ( 0.0000000000000000000, 0.0000000000000000000, 0.0000000000000000000 ) ) ;
#298 = CARTESIAN_POINT ( 'NONE',  ( 1.316288464743861212E-13, 0.0000000000000000000, 37.69999999999999574 ) ) ;
#299 = DIRECTION ( 'NONE',  ( -3.491481338843133355E-15, 0.0000000000000000000, -1.000000000000000000 ) ) ;
#300 = DIRECTION ( 'NONE',  ( -3.491481338843133355E-15, 0.0000000000000000000, -1.000000000000000000 ) ) ;
#301 = AXIS2_PLACEMENT_3D ( 'NONE', #102, #110, #76 ) ;
#302 = CALENDAR_DATE ( 2021, 17, 12 ) ;
#303 =( LENGTH_UNIT ( ) NAMED_UNIT ( * ) SI_UNIT ( .MILLI., .METRE. ) );
#304 = CARTESIAN_POINT ( 'NONE',  ( 0.0000000000000000000, 0.0000000000000000000, 0.0000000000000000000 ) ) ;
#305 = DIRECTION ( 'NONE',  ( -3.491481338843133355E-15, 0.0000000000000000000, -1.000000000000000000 ) ) ;
#306 = MECHANICAL_CONTEXT ( 'NONE', #173, 'mechanical' ) ;
#307 = DIRECTION ( 'NONE',  ( -1.000000000000000000, 0.0000000000000000000, 3.491481338843133750E-15 ) ) ;
#308 = CIRCLE ( 'NONE', #354, 0.1800000000000000488 ) ;
#309 = APPLICATION_PROTOCOL_DEFINITION ( 'international standard', 'config_control_design', 1994, #290 ) ;
#310 = DIRECTION ( 'NONE',  ( -1.000000000000000000, 0.0000000000000000000, 3.492381997910038260E-15 ) ) ;
#311 = DIRECTION ( 'NONE',  ( -1.000000000000000000, 0.0000000000000000000, 3.463423606550915846E-15 ) ) ;
#312 = DIRECTION ( 'NONE',  ( 3.491481338843133355E-15, 0.0000000000000000000, 1.000000000000000000 ) ) ;
#313 = APPROVAL_ROLE ( '' ) ;
#314 = ORIENTED_EDGE ( 'NONE', *, *, #196, .T. ) ;
#315 = PRODUCT_DEFINITION ( 'UNKNOWN', '', #148, #84 ) ;
#316 = EDGE_LOOP ( 'NONE', ( #41 ) ) ;
#317 = EDGE_LOOP ( 'NONE', ( #66 ) ) ;
#318 = PERSON_AND_ORGANIZATION ( #43, #155 ) ;
#319 = AXIS2_PLACEMENT_3D ( 'NONE', #298, #243, #322 ) ;
#320 = EDGE_CURVE ( 'NONE', #247, #247, #31, .T. ) ;
#321 = ORIENTED_EDGE ( 'NONE', *, *, #350, .T. ) ;
#322 = DIRECTION ( 'NONE',  ( -1.000000000000000000, 0.0000000000000000000, 4.625929269271500311E-15 ) ) ;
#323 = EDGE_CURVE ( 'NONE', #19, #19, #308, .T. ) ;
#324 = DIRECTION ( 'NONE',  ( 3.491481338843133355E-15, 0.0000000000000000000, 1.000000000000000000 ) ) ;
#325 = CIRCLE ( 'NONE', #186, 0.1549999999999998601 ) ;
#326 = PERSON_AND_ORGANIZATION_ROLE ( 'design_supplier' ) ;
#327 = PLANE ( 'NONE',  #207 ) ;
#328 = CARTESIAN_POINT ( 'NONE',  ( -0.1799999999999993827, 0.0000000000000000000, 0.1973760430703402624 ) ) ;
#329 = COORDINATED_UNIVERSAL_TIME_OFFSET ( 1, 0, .AHEAD. ) ;
#330 = VERTEX_POINT ( 'NONE', #78 ) ;
#331 = DIRECTION ( 'NONE',  ( -1.000000000000000000, 0.0000000000000000000, 3.491481338843133355E-15 ) ) ;
#332 = CIRCLE ( 'NONE', #242, 0.2600000000000000089 ) ;
#333 = CARTESIAN_POINT ( 'NONE',  ( 0.0000000000000000000, 0.0000000000000000000, 0.0000000000000000000 ) ) ;
#334 = CARTESIAN_POINT ( 'NONE',  ( 1.182959891489475848E-32, 0.0000000000000000000, 3.388131789017201356E-18 ) ) ;
#335 = FACE_OUTER_BOUND ( 'NONE', #238, .T. ) ;
#336 = EDGE_CURVE ( 'NONE', #330, #330, #286, .T. ) ;
#337 = PERSON_AND_ORGANIZATION_ROLE ( 'creator' ) ;
#338 = FACE_BOUND ( 'NONE', #235, .T. ) ;
#339 = CARTESIAN_POINT ( 'NONE',  ( 3.183812755160713011E-16, 0.0000000000000000000, 0.09118802153516986087 ) ) ;
#340 = DATE_TIME_ROLE ( 'classification_date' ) ;
#341 = APPROVAL_ROLE ( '' ) ;
#342 = CYLINDRICAL_SURFACE ( 'NONE', #67, 0.1549999999999998601 ) ;
#343 = ORIENTED_EDGE ( 'NONE', *, *, #105, .T. ) ;
#344 = AXIS2_PLACEMENT_3D ( 'NONE', #304, #250, #307 ) ;
#345 = ORIENTED_EDGE ( 'NONE', *, *, #323, .F. ) ;
#346 = EDGE_LOOP ( 'NONE', ( #291 ) ) ;
#347 = PERSON_AND_ORGANIZATION ( #43, #155 ) ;
#348 = EDGE_LOOP ( 'NONE', ( #157 ) ) ;
#349 = DIRECTION ( 'NONE',  ( -1.000000000000000000, 0.0000000000000000000, 3.491481338843133355E-15 ) ) ;
#350 = EDGE_CURVE ( 'NONE', #193, #193, #229, .T. ) ;
#351 = PRODUCT_DEFINITION_SHAPE ( 'NONE', 'NONE',  #315 ) ;
#352 = FACE_OUTER_BOUND ( 'NONE', #10, .T. ) ;
#353 =( NAMED_UNIT ( * ) SI_UNIT ( $, .STERADIAN. ) SOLID_ANGLE_UNIT ( ) );
#354 = AXIS2_PLACEMENT_3D ( 'NONE', #113, #305, #53 ) ;
#355 = DIRECTION ( 'NONE',  ( 3.491481338843133355E-15, 0.0000000000000000000, 1.000000000000000000 ) ) ;
#356 = DIRECTION ( 'NONE',  ( 1.000000000000000000, 0.0000000000000000000, -3.469446951953624444E-15 ) ) ;
#357 = EDGE_CURVE ( 'NONE', #141, #141, #86, .T. ) ;
#358 = VERTEX_POINT ( 'NONE', #144 ) ;
#359 = CALENDAR_DATE ( 2021, 17, 12 ) ;
#360 = DIRECTION ( 'NONE',  ( -3.491481338843133355E-15, 0.0000000000000000000, -1.000000000000000000 ) ) ;
#361 = CONICAL_SURFACE ( 'NONE', #92, 0.2600000000000000089, 1.047197551196599852 ) ;
#362 = CIRCLE ( 'NONE', #107, 0.1800000000000000488 ) ;
#363 = ADVANCED_FACE ( 'NONE', ( #25, #138 ), #288, .T. ) ;
ENDSEC;
END-ISO-10303-21;
