ISO-10303-21;
HEADER;
FILE_DESCRIPTION (( 'STEP AP203' ),
    '1' );
FILE_NAME ('378072.step',
    '2021-12-17T07:11:07',
    ( '' ),
    ( '' ),
    'SwSTEP 2.0',
    'SolidWorks 2019',
    '' );
FILE_SCHEMA (( 'CONFIG_CONTROL_DESIGN' ));
ENDSEC;

DATA;
#1 = CARTESIAN_POINT ( 'NONE',  ( -0.1249999999999995143, 0.0000000000000000000, 0.1432820323027551024 ) ) ;
#2 = APPLICATION_PROTOCOL_DEFINITION ( 'international standard', 'config_control_design', 1994, #342 ) ;
#3 = ORIENTED_EDGE ( 'NONE', *, *, #82, .T. ) ;
#4 = ADVANCED_FACE ( 'NONE', ( #268, #23 ), #238, .T. ) ;
#5 = ORIENTED_EDGE ( 'NONE', *, *, #92, .F. ) ;
#6 = CC_DESIGN_DATE_AND_TIME_ASSIGNMENT ( #170, #282, ( #270 ) ) ;
#7 = AXIS2_PLACEMENT_3D ( 'NONE', #152, #13, #125 ) ;
#8 = ORIENTED_EDGE ( 'NONE', *, *, #27, .F. ) ;
#9 = PRODUCT_DEFINITION_SHAPE ( 'NONE', 'NONE',  #270 ) ;
#10 = COORDINATED_UNIVERSAL_TIME_OFFSET ( 1, 0, .AHEAD. ) ;
#11 = APPROVAL_DATE_TIME ( #256, #173 ) ;
#12 = AXIS2_PLACEMENT_3D ( 'NONE', #158, #266, #22 ) ;
#13 = DIRECTION ( 'NONE',  ( -3.491481338843133355E-15, 0.0000000000000000000, -1.000000000000000000 ) ) ;
#14 = ADVANCED_FACE ( 'NONE', ( #47, #350 ), #138, .T. ) ;
#15 = DIRECTION ( 'NONE',  ( -3.491481338843133355E-15, 0.0000000000000000000, -1.000000000000000000 ) ) ;
#16 = CARTESIAN_POINT ( 'NONE',  ( 1.316288464743861212E-13, 0.0000000000000000000, 37.69999999999999574 ) ) ;
#17 = AXIS2_PLACEMENT_3D ( 'NONE', #278, #117, #183 ) ;
#18 = AXIS2_PLACEMENT_3D ( 'NONE', #78, #34, #24 ) ;
#19 = DIRECTION ( 'NONE',  ( -3.491481338843133355E-15, 0.0000000000000000000, -1.000000000000000000 ) ) ;
#20 = ADVANCED_BREP_SHAPE_REPRESENTATION ( '378072', ( #101, #212, #69 ), #35 ) ;
#21 = ADVANCED_FACE ( 'NONE', ( #109 ), #46, .F. ) ;
#22 = DIRECTION ( 'NONE',  ( -1.000000000000000000, 0.0000000000000000000, 3.469446951953614189E-15 ) ) ;
#23 = FACE_BOUND ( 'NONE', #343, .T. ) ;
#24 = DIRECTION ( 'NONE',  ( -1.000000000000000000, 0.0000000000000000000, 5.782411586589379332E-15 ) ) ;
#25 = CIRCLE ( 'NONE', #73, 0.1850000000000000533 ) ;
#26 = CARTESIAN_POINT ( 'NONE',  ( 2.153965756939081545E-14, 0.0000000000000000000, 6.169203120108257998 ) ) ;
#27 = EDGE_CURVE ( 'NONE', #301, #301, #85, .T. ) ;
#28 = DIRECTION ( 'NONE',  ( -1.000000000000000000, 0.0000000000000000000, 3.491481338843133355E-15 ) ) ;
#29 = CARTESIAN_POINT ( 'NONE',  ( -1.499999999999974021, 0.0000000000000000000, 6.169203120108263327 ) ) ;
#30 = CARTESIAN_POINT ( 'NONE',  ( 2.967759138016663352E-15, 0.0000000000000000000, 0.8500000000000000888 ) ) ;
#31 = CARTESIAN_POINT ( 'NONE',  ( -1.199999999999862732, 0.0000000000000000000, 38.00000000000000711 ) ) ;
#32 = ORIENTED_EDGE ( 'NONE', *, *, #311, .T. ) ;
#33 = CLOSED_SHELL ( 'NONE', ( #21, #14, #337, #66, #151, #334, #74 ) ) ;
#34 = DIRECTION ( 'NONE',  ( -3.491481338843133355E-15, 0.0000000000000000000, -1.000000000000000000 ) ) ;
#35 =( GEOMETRIC_REPRESENTATION_CONTEXT ( 3 ) GLOBAL_UNCERTAINTY_ASSIGNED_CONTEXT ( ( #58 ) ) GLOBAL_UNIT_ASSIGNED_CONTEXT ( ( #357, #280, #81 ) ) REPRESENTATION_CONTEXT ( 'NONE', 'WORKASPACE' ) );
#36 = VERTEX_POINT ( 'NONE', #351 ) ;
#37 = EDGE_LOOP ( 'NONE', ( #331 ) ) ;
#38 = ADVANCED_FACE ( 'NONE', ( #293, #45 ), #313, .T. ) ;
#39 = ORIENTED_EDGE ( 'NONE', *, *, #108, .F. ) ;
#40 = AXIS2_PLACEMENT_3D ( 'NONE', #50, #159, #208 ) ;
#41 = AXIS2_PLACEMENT_3D ( 'NONE', #355, #235, #140 ) ;
#42 = DIRECTION ( 'NONE',  ( -1.000000000000000000, 0.0000000000000000000, 3.491481338843133355E-15 ) ) ;
#43 = CC_DESIGN_PERSON_AND_ORGANIZATION_ASSIGNMENT ( #305, #249, ( #202 ) ) ;
#44 = ORIENTED_EDGE ( 'NONE', *, *, #142, .T. ) ;
#45 = FACE_OUTER_BOUND ( 'NONE', #207, .T. ) ;
#46 = PLANE ( 'NONE',  #134 ) ;
#47 = FACE_OUTER_BOUND ( 'NONE', #200, .T. ) ;
#48 = AXIS2_PLACEMENT_3D ( 'NONE', #132, #157, #105 ) ;
#49 = AXIS2_PLACEMENT_3D ( 'NONE', #321, #87, #324 ) ;
#50 = CARTESIAN_POINT ( 'NONE',  ( 3.885391391336067938E-16, 0.0000000000000000000, 0.1112820323027546854 ) ) ;
#51 = FACE_BOUND ( 'NONE', #167, .T. ) ;
#52 = APPROVAL_PERSON_ORGANIZATION ( #310, #173, #284 ) ;
#53 = DIRECTION ( 'NONE',  ( -3.491481338843133355E-15, 0.0000000000000000000, -1.000000000000000000 ) ) ;
#54 = VERTEX_POINT ( 'NONE', #362 ) ;
#55 = DIRECTION ( 'NONE',  ( -1.000000000000000000, 0.0000000000000000000, 3.469446951953624444E-15 ) ) ;
#56 = VERTEX_POINT ( 'NONE', #29 ) ;
#57 = EDGE_LOOP ( 'NONE', ( #226 ) ) ;
#58 = UNCERTAINTY_MEASURE_WITH_UNIT (LENGTH_MEASURE( 1.000000000000000082E-05 ), #357, 'distance_accuracy_value', 'NONE');
#59 = DIRECTION ( 'NONE',  ( -1.000000000000000000, 0.0000000000000000000, 3.491481338843133355E-15 ) ) ;
#60 = PERSON_AND_ORGANIZATION ( #233, #77 ) ;
#61 = ADVANCED_FACE ( 'NONE', ( #265, #316 ), #254, .F. ) ;
#62 = VERTEX_POINT ( 'NONE', #275 ) ;
#63 = CIRCLE ( 'NONE', #12, 0.1250000000000000000 ) ;
#64 = CALENDAR_DATE ( 2021, 17, 12 ) ;
#65 = EDGE_LOOP ( 'NONE', ( #149 ) ) ;
#66 = ADVANCED_FACE ( 'NONE', ( #180, #72 ), #346, .T. ) ;
#67 = DESIGN_CONTEXT ( 'detailed design', #342, 'design' ) ;
#68 = DATE_AND_TIME ( #223, #231 ) ;
#69 = AXIS2_PLACEMENT_3D ( 'NONE', #135, #218, #322 ) ;
#70 = CALENDAR_DATE ( 2021, 17, 12 ) ;
#71 = DATE_AND_TIME ( #123, #236 ) ;
#72 = FACE_OUTER_BOUND ( 'NONE', #222, .T. ) ;
#73 = AXIS2_PLACEMENT_3D ( 'NONE', #104, #204, #75 ) ;
#74 = ADVANCED_FACE ( 'NONE', ( #103 ), #341, .T. ) ;
#75 = DIRECTION ( 'NONE',  ( -1.000000000000000000, 0.0000000000000000000, 3.516331370223256547E-15 ) ) ;
#76 = CONICAL_SURFACE ( 'NONE', #115, 1.499999999999995559, 0.2617993877991426910 ) ;
#77 = ORGANIZATION ( 'UNSPECIFIED', 'UNSPECIFIED', '' ) ;
#78 = CARTESIAN_POINT ( 'NONE',  ( 1.326762908760390423E-13, 0.0000000000000000000, 38.00000000000000000 ) ) ;
#79 = ORIENTED_EDGE ( 'NONE', *, *, #297, .T. ) ;
#80 = FACE_BOUND ( 'NONE', #260, .T. ) ;
#81 =( NAMED_UNIT ( * ) SI_UNIT ( $, .STERADIAN. ) SOLID_ANGLE_UNIT ( ) );
#82 = EDGE_CURVE ( 'NONE', #119, #119, #25, .T. ) ;
#83 = FACE_OUTER_BOUND ( 'NONE', #216, .T. ) ;
#84 = COORDINATED_UNIVERSAL_TIME_OFFSET ( 1, 0, .AHEAD. ) ;
#85 = CIRCLE ( 'NONE', #323, 1.499999999999995337 ) ;
#86 = CIRCLE ( 'NONE', #339, 0.1250000000000000000 ) ;
#87 = DIRECTION ( 'NONE',  ( 3.491481338843133355E-15, 0.0000000000000000000, 1.000000000000000000 ) ) ;
#88 = CARTESIAN_POINT ( 'NONE',  ( 9.246646801157334548E-16, 0.0000000000000000000, 0.2648344901141908014 ) ) ;
#89 = EDGE_LOOP ( 'NONE', ( #307 ) ) ;
#90 = APPROVAL_DATE_TIME ( #243, #199 ) ;
#91 = EDGE_LOOP ( 'NONE', ( #363 ) ) ;
#92 = EDGE_CURVE ( 'NONE', #329, #329, #63, .T. ) ;
#93 = ORIENTED_EDGE ( 'NONE', *, *, #184, .F. ) ;
#94 = AXIS2_PLACEMENT_3D ( 'NONE', #126, #15, #234 ) ;
#95 = DATE_TIME_ROLE ( 'classification_date' ) ;
#96 = CIRCLE ( 'NONE', #246, 0.1099999999999989875 ) ;
#97 = ADVANCED_FACE ( 'NONE', ( #340, #197 ), #312, .T. ) ;
#98 = DIRECTION ( 'NONE',  ( -3.491481338843133355E-15, 0.0000000000000000000, -1.000000000000000000 ) ) ;
#99 = EDGE_LOOP ( 'NONE', ( #79 ) ) ;
#100 = EDGE_LOOP ( 'NONE', ( #5 ) ) ;
#101 = MANIFOLD_SOLID_BREP ( 'Corps-Déplacer/Copier1[1]', #156 ) ;
#102 = EDGE_CURVE ( 'NONE', #248, #248, #162, .T. ) ;
#103 = FACE_OUTER_BOUND ( 'NONE', #190, .T. ) ;
#104 = CARTESIAN_POINT ( 'NONE',  ( 2.675906776825090859E-16, 0.0000000000000000000, 0.07664101615137731971 ) ) ;
#105 = DIRECTION ( 'NONE',  ( -1.000000000000000000, 0.0000000000000000000, 3.491481338843133355E-15 ) ) ;
#106 = DIRECTION ( 'NONE',  ( -1.000000000000000000, 0.0000000000000000000, 3.469446951953614189E-15 ) ) ;
#107 = DIRECTION ( 'NONE',  ( -3.491481338843133355E-15, 0.0000000000000000000, -1.000000000000000000 ) ) ;
#108 = EDGE_CURVE ( 'NONE', #36, #36, #338, .T. ) ;
#109 = FACE_OUTER_BOUND ( 'NONE', #65, .T. ) ;
#110 = VERTEX_POINT ( 'NONE', #215 ) ;
#111 = CARTESIAN_POINT ( 'NONE',  ( 5.002665419765869172E-16, 0.0000000000000000000, 0.1432820323027546583 ) ) ;
#112 = PRODUCT_RELATED_PRODUCT_CATEGORY ( 'detail', '', ( #202 ) ) ;
#113 = PERSON_AND_ORGANIZATION_ROLE ( 'creator' ) ;
#114 = FACE_OUTER_BOUND ( 'NONE', #99, .T. ) ;
#115 = AXIS2_PLACEMENT_3D ( 'NONE', #360, #304, #217 ) ;
#116 = LOCAL_TIME ( 8, 11, 7.000000000000000000, #84 ) ;
#117 = DIRECTION ( 'NONE',  ( -3.491481338843133355E-15, 0.0000000000000000000, -1.000000000000000000 ) ) ;
#118 = ORIENTED_EDGE ( 'NONE', *, *, #290, .F. ) ;
#119 = VERTEX_POINT ( 'NONE', #220 ) ;
#120 = APPROVAL_STATUS ( 'not_yet_approved' ) ;
#121 = ORIENTED_EDGE ( 'NONE', *, *, #171, .F. ) ;
#122 = EDGE_LOOP ( 'NONE', ( #118 ) ) ;
#123 = CALENDAR_DATE ( 2021, 17, 12 ) ;
#124 = TOROIDAL_SURFACE ( 'NONE', #175, 0.6099999999999989875, 0.5000000000000000000 ) ;
#125 = DIRECTION ( 'NONE',  ( -1.000000000000000000, 0.0000000000000000000, 3.469446951953614189E-15 ) ) ;
#126 = CARTESIAN_POINT ( 'NONE',  ( 2.967759138016663352E-15, 0.0000000000000000000, 0.8500000000000000888 ) ) ;
#127 = EDGE_CURVE ( 'NONE', #110, #110, #129, .T. ) ;
#128 = ORIENTED_EDGE ( 'NONE', *, *, #165, .F. ) ;
#129 = CIRCLE ( 'NONE', #279, 0.1099999999999989875 ) ;
#130 = CC_DESIGN_APPROVAL ( #199, ( #270 ) ) ;
#131 = DIRECTION ( 'NONE',  ( -3.491481338843133355E-15, 0.0000000000000000000, -1.000000000000000000 ) ) ;
#132 = CARTESIAN_POINT ( 'NONE',  ( 0.0000000000000000000, 0.0000000000000000000, 0.0000000000000000000 ) ) ;
#133 = PLANE ( 'NONE',  #361 ) ;
#134 = AXIS2_PLACEMENT_3D ( 'NONE', #242, #205, #353 ) ;
#135 = CARTESIAN_POINT ( 'NONE',  ( 0.0000000000000000000, 0.0000000000000000000, 0.0000000000000000000 ) ) ;
#136 = PLANE ( 'NONE',  #17 ) ;
#137 = CC_DESIGN_PERSON_AND_ORGANIZATION_ASSIGNMENT ( #160, #356, ( #314 ) ) ;
#138 = CYLINDRICAL_SURFACE ( 'NONE', #48, 0.1250000000000000000 ) ;
#139 = PERSON_AND_ORGANIZATION ( #233, #77 ) ;
#140 = DIRECTION ( 'NONE',  ( -1.000000000000000000, 0.0000000000000000000, 3.516331370223256547E-15 ) ) ;
#141 = PERSON_AND_ORGANIZATION_ROLE ( 'creator' ) ;
#142 = EDGE_CURVE ( 'NONE', #54, #54, #181, .T. ) ;
#143 = ORIENTED_EDGE ( 'NONE', *, *, #297, .F. ) ;
#144 = FACE_OUTER_BOUND ( 'NONE', #37, .T. ) ;
#145 = EDGE_LOOP ( 'NONE', ( #188 ) ) ;
#146 = AXIS2_PLACEMENT_3D ( 'NONE', #258, #201, #347 ) ;
#147 = CARTESIAN_POINT ( 'NONE',  ( -0.1249999999999996253, 0.0000000000000000000, 0.1112820323027551295 ) ) ;
#148 = PERSON_AND_ORGANIZATION_ROLE ( 'classification_officer' ) ;
#149 = ORIENTED_EDGE ( 'NONE', *, *, #165, .T. ) ;
#150 = AXIS2_PLACEMENT_3D ( 'NONE', #227, #98, #198 ) ;
#151 = ADVANCED_FACE ( 'NONE', ( #349, #267 ), #232, .T. ) ;
#152 = CARTESIAN_POINT ( 'NONE',  ( 3.885391391336067938E-16, 0.0000000000000000000, 0.1112820323027546854 ) ) ;
#153 = DIRECTION ( 'NONE',  ( -3.491481338843133355E-15, 0.0000000000000000000, -1.000000000000000000 ) ) ;
#154 = CARTESIAN_POINT ( 'NONE',  ( 0.0000000000000000000, 0.0000000000000000000, 0.0000000000000000000 ) ) ;
#155 = CARTESIAN_POINT ( 'NONE',  ( 1.326762908760390423E-13, 0.0000000000000000000, 38.00000000000000000 ) ) ;
#156 = CLOSED_SHELL ( 'NONE', ( #247, #241, #97, #61, #203, #38, #4, #228 ) ) ;
#157 = DIRECTION ( 'NONE',  ( -3.491481338843133355E-15, 0.0000000000000000000, -1.000000000000000000 ) ) ;
#158 = CARTESIAN_POINT ( 'NONE',  ( 5.002665419765869172E-16, 0.0000000000000000000, 0.1432820323027546583 ) ) ;
#159 = DIRECTION ( 'NONE',  ( -3.491481338843133355E-15, 0.0000000000000000000, -1.000000000000000000 ) ) ;
#160 = PERSON_AND_ORGANIZATION ( #233, #77 ) ;
#161 = FACE_OUTER_BOUND ( 'NONE', #91, .T. ) ;
#162 = CIRCLE ( 'NONE', #7, 0.1250000000000000000 ) ;
#163 = CARTESIAN_POINT ( 'NONE',  ( -0.1249999999999995143, 0.0000000000000000000, 0.1432820323027551024 ) ) ;
#164 = DIRECTION ( 'NONE',  ( -1.000000000000000000, 0.0000000000000000000, 3.942553354492779325E-15 ) ) ;
#165 = EDGE_CURVE ( 'NONE', #62, #62, #257, .T. ) ;
#166 = DIRECTION ( 'NONE',  ( -3.491481338843133355E-15, 0.0000000000000000000, -1.000000000000000000 ) ) ;
#167 = EDGE_LOOP ( 'NONE', ( #277 ) ) ;
#168 = DIRECTION ( 'NONE',  ( 1.000000000000000000, 0.0000000000000000000, -3.491481338843133355E-15 ) ) ;
#169 = APPLICATION_PROTOCOL_DEFINITION ( 'international standard', 'config_control_design', 1994, #177 ) ;
#170 = DATE_AND_TIME ( #64, #116 ) ;
#171 = EDGE_CURVE ( 'NONE', #209, #209, #287, .T. ) ;
#172 = EDGE_LOOP ( 'NONE', ( #283 ) ) ;
#173 = APPROVAL ( #176, 'UNSPECIFIED' ) ;
#174 = AXIS2_PLACEMENT_3D ( 'NONE', #26, #271, #55 ) ;
#175 = AXIS2_PLACEMENT_3D ( 'NONE', #88, #352, #59 ) ;
#176 = APPROVAL_STATUS ( 'not_yet_approved' ) ;
#177 = APPLICATION_CONTEXT ( 'configuration controlled 3d designs of mechanical parts and assemblies' ) ;
#178 = CARTESIAN_POINT ( 'NONE',  ( 0.0000000000000000000, 0.0000000000000000000, 0.0000000000000000000 ) ) ;
#179 = AXIS2_PLACEMENT_3D ( 'NONE', #259, #19, #317 ) ;
#180 = FACE_OUTER_BOUND ( 'NONE', #358, .T. ) ;
#181 = CIRCLE ( 'NONE', #345, 0.1250000000000000000 ) ;
#182 = DIRECTION ( 'NONE',  ( 3.491481338843133355E-15, 0.0000000000000000000, 1.000000000000000000 ) ) ;
#183 = DIRECTION ( 'NONE',  ( -1.000000000000000000, 0.0000000000000000000, 3.491481338843133355E-15 ) ) ;
#184 = EDGE_CURVE ( 'NONE', #56, #56, #263, .T. ) ;
#185 = CARTESIAN_POINT ( 'NONE',  ( -3.312287696170532428E-31, 0.0000000000000000000, -9.486769009248163798E-17 ) ) ;
#186 = APPROVAL_ROLE ( '' ) ;
#187 = DIRECTION ( 'NONE',  ( -3.491481338843133355E-15, 0.0000000000000000000, -1.000000000000000000 ) ) ;
#188 = ORIENTED_EDGE ( 'NONE', *, *, #82, .F. ) ;
#189 = FACE_OUTER_BOUND ( 'NONE', #100, .T. ) ;
#190 = EDGE_LOOP ( 'NONE', ( #219 ) ) ;
#191 = APPROVAL_PERSON_ORGANIZATION ( #239, #211, #186 ) ;
#192 = APPROVAL_ROLE ( '' ) ;
#193 = DIRECTION ( 'NONE',  ( -1.000000000000000000, 0.0000000000000000000, 4.625929269271500311E-15 ) ) ;
#194 = EDGE_LOOP ( 'NONE', ( #44 ) ) ;
#195 = AXIS2_PLACEMENT_3D ( 'NONE', #185, #318, #28 ) ;
#196 = AXIS2_PLACEMENT_3D ( 'NONE', #210, #187, #319 ) ;
#197 = FACE_OUTER_BOUND ( 'NONE', #57, .T. ) ;
#198 = DIRECTION ( 'NONE',  ( -1.000000000000000000, 0.0000000000000000000, 3.010122201806556642E-15 ) ) ;
#199 = APPROVAL ( #120, 'UNSPECIFIED' ) ;
#200 = EDGE_LOOP ( 'NONE', ( #128 ) ) ;
#201 = DIRECTION ( 'NONE',  ( 3.491481338843133355E-15, 0.0000000000000000000, 1.000000000000000000 ) ) ;
#202 = PRODUCT ( '378072', '378072', '', ( #327 ) ) ;
#203 = ADVANCED_FACE ( 'NONE', ( #80, #144 ), #76, .T. ) ;
#204 = DIRECTION ( 'NONE',  ( -3.491481338843133355E-15, 0.0000000000000000000, -1.000000000000000000 ) ) ;
#205 = DIRECTION ( 'NONE',  ( 3.491481338843133355E-15, 0.0000000000000000000, 1.000000000000000000 ) ) ;
#206 = DIRECTION ( 'NONE',  ( -3.491481338843133355E-15, 0.0000000000000000000, -1.000000000000000000 ) ) ;
#207 = EDGE_LOOP ( 'NONE', ( #250 ) ) ;
#208 = DIRECTION ( 'NONE',  ( -1.000000000000000000, 0.0000000000000000000, 3.469446951953614189E-15 ) ) ;
#209 = VERTEX_POINT ( 'NONE', #320 ) ;
#210 = CARTESIAN_POINT ( 'NONE',  ( 0.0000000000000000000, 0.0000000000000000000, 0.0000000000000000000 ) ) ;
#211 = APPROVAL ( #354, 'UNSPECIFIED' ) ;
#212 = MANIFOLD_SOLID_BREP ( 'Corps-Déplacer/Copier1[2]', #33 ) ;
#213 = FACE_OUTER_BOUND ( 'NONE', #172, .T. ) ;
#214 = CONICAL_SURFACE ( 'NONE', #49, 0.1850000000000000533, 1.047197551196598964 ) ;
#215 = CARTESIAN_POINT ( 'NONE',  ( -0.1099999999999960176, 0.0000000000000000000, 0.8500000000000005329 ) ) ;
#216 = EDGE_LOOP ( 'NONE', ( #335 ) ) ;
#217 = DIRECTION ( 'NONE',  ( 1.000000000000000000, 0.0000000000000000000, -3.469446951953624444E-15 ) ) ;
#218 = DIRECTION ( 'NONE',  ( 0.0000000000000000000, 0.0000000000000000000, 1.000000000000000000 ) ) ;
#219 = ORIENTED_EDGE ( 'NONE', *, *, #311, .F. ) ;
#220 = CARTESIAN_POINT ( 'NONE',  ( -0.1849999999999997757, 0.0000000000000000000, 0.07664101615137795809 ) ) ;
#221 = COORDINATED_UNIVERSAL_TIME_OFFSET ( 1, 0, .AHEAD. ) ;
#222 = EDGE_LOOP ( 'NONE', ( #3 ) ) ;
#223 = CALENDAR_DATE ( 2021, 17, 12 ) ;
#224 = CC_DESIGN_APPROVAL ( #173, ( #269 ) ) ;
#225 = EDGE_LOOP ( 'NONE', ( #143 ) ) ;
#226 = ORIENTED_EDGE ( 'NONE', *, *, #127, .T. ) ;
#227 = CARTESIAN_POINT ( 'NONE',  ( 3.871421004129290754E-15, 0.0000000000000000000, 1.108819045102514167 ) ) ;
#228 = ADVANCED_FACE ( 'NONE', ( #244 ), #136, .F. ) ;
#229 = ORIENTED_EDGE ( 'NONE', *, *, #127, .F. ) ;
#230 = EDGE_LOOP ( 'NONE', ( #229 ) ) ;
#231 = LOCAL_TIME ( 8, 11, 7.000000000000000000, #309 ) ;
#232 = CONICAL_SURFACE ( 'NONE', #40, 0.1250000000000000000, 1.047197551196600296 ) ;
#233 = PERSON ( 'UNSPECIFIED', 'UNSPECIFIED', 'UNSPECIFIED', ('UNSPECIFIED'), ('UNSPECIFIED'), ('UNSPECIFIED') ) ;
#234 = DIRECTION ( 'NONE',  ( -1.000000000000000000, 0.0000000000000000000, 3.491481338843133355E-15 ) ) ;
#235 = DIRECTION ( 'NONE',  ( -3.491481338843133355E-15, 0.0000000000000000000, -1.000000000000000000 ) ) ;
#236 = LOCAL_TIME ( 8, 11, 7.000000000000000000, #10 ) ;
#237 = CYLINDRICAL_SURFACE ( 'NONE', #196, 0.1250000000000000000 ) ;
#238 = CONICAL_SURFACE ( 'NONE', #272, 1.199999999999995293, 0.7853981633974453924 ) ;
#239 = PERSON_AND_ORGANIZATION ( #233, #77 ) ;
#240 = CARTESIAN_POINT ( 'NONE',  ( 1.117274028429798769E-16, 0.0000000000000000000, 0.03199999999999988964 ) ) ;
#241 = ADVANCED_FACE ( 'NONE', ( #189, #114 ), #124, .F. ) ;
#242 = CARTESIAN_POINT ( 'NONE',  ( -1.656143848085266214E-31, 0.0000000000000000000, -4.743384504624081899E-17 ) ) ;
#243 = DATE_AND_TIME ( #330, #288 ) ;
#244 = FACE_OUTER_BOUND ( 'NONE', #122, .T. ) ;
#245 = VERTEX_POINT ( 'NONE', #326 ) ;
#246 = AXIS2_PLACEMENT_3D ( 'NONE', #298, #166, #276 ) ;
#247 = ADVANCED_FACE ( 'NONE', ( #213 ), #133, .F. ) ;
#248 = VERTEX_POINT ( 'NONE', #147 ) ;
#249 = PERSON_AND_ORGANIZATION_ROLE ( 'design_owner' ) ;
#250 = ORIENTED_EDGE ( 'NONE', *, *, #27, .T. ) ;
#251 = APPROVAL_DATE_TIME ( #71, #211 ) ;
#252 = EDGE_LOOP ( 'NONE', ( #32 ) ) ;
#253 = EDGE_LOOP ( 'NONE', ( #336 ) ) ;
#254 = TOROIDAL_SURFACE ( 'NONE', #94, 1.109999999999998987, 1.000000000000000000 ) ;
#255 = PERSON_AND_ORGANIZATION ( #233, #77 ) ;
#256 = DATE_AND_TIME ( #70, #294 ) ;
#257 = CIRCLE ( 'NONE', #195, 0.1250000000000000000 ) ;
#258 = CARTESIAN_POINT ( 'NONE',  ( 5.002665419765867200E-16, -1.242773525606277849E-16, 0.1432820323027546028 ) ) ;
#259 = CARTESIAN_POINT ( 'NONE',  ( 0.0000000000000000000, 0.0000000000000000000, 0.0000000000000000000 ) ) ;
#260 = EDGE_LOOP ( 'NONE', ( #39 ) ) ;
#261 = DIRECTION ( 'NONE',  ( -1.000000000000000000, 0.0000000000000000000, 3.491481338843133355E-15 ) ) ;
#262 = CC_DESIGN_SECURITY_CLASSIFICATION ( #269, ( #314 ) ) ;
#263 = CIRCLE ( 'NONE', #174, 1.499999999999995559 ) ;
#264 = APPROVAL_PERSON_ORGANIZATION ( #139, #199, #192 ) ;
#265 = FACE_OUTER_BOUND ( 'NONE', #230, .T. ) ;
#266 = DIRECTION ( 'NONE',  ( -3.491481338843133355E-15, 0.0000000000000000000, -1.000000000000000000 ) ) ;
#267 = FACE_BOUND ( 'NONE', #253, .T. ) ;
#268 = FACE_OUTER_BOUND ( 'NONE', #328, .T. ) ;
#269 = SECURITY_CLASSIFICATION ( '', '', #286 ) ;
#270 = PRODUCT_DEFINITION ( 'UNKNOWN', '', #314, #67 ) ;
#271 = DIRECTION ( 'NONE',  ( -3.491481338843133355E-15, 0.0000000000000000000, -1.000000000000000000 ) ) ;
#272 = AXIS2_PLACEMENT_3D ( 'NONE', #155, #273, #296 ) ;
#273 = DIRECTION ( 'NONE',  ( -3.491481338843133355E-15, 0.0000000000000000000, -1.000000000000000000 ) ) ;
#274 = DIRECTION ( 'NONE',  ( -1.000000000000000000, 0.0000000000000000000, 3.469446951953614189E-15 ) ) ;
#275 = CARTESIAN_POINT ( 'NONE',  ( -0.1250000000000000000, 0.0000000000000000000, 3.415674772629100314E-16 ) ) ;
#276 = DIRECTION ( 'NONE',  ( -1.000000000000000000, 0.0000000000000000000, 3.449734185181182206E-15 ) ) ;
#277 = ORIENTED_EDGE ( 'NONE', *, *, #142, .F. ) ;
#278 = CARTESIAN_POINT ( 'NONE',  ( 1.326762908760390423E-13, 0.0000000000000000000, 38.00000000000000000 ) ) ;
#279 = AXIS2_PLACEMENT_3D ( 'NONE', #30, #206, #164 ) ;
#280 =( NAMED_UNIT ( * ) PLANE_ANGLE_UNIT ( ) SI_UNIT ( $, .RADIAN. ) );
#281 = CC_DESIGN_PERSON_AND_ORGANIZATION_ASSIGNMENT ( #255, #148, ( #269 ) ) ;
#282 = DATE_TIME_ROLE ( 'creation_date' ) ;
#283 = ORIENTED_EDGE ( 'NONE', *, *, #92, .T. ) ;
#284 = APPROVAL_ROLE ( '' ) ;
#285 = EDGE_LOOP ( 'NONE', ( #93 ) ) ;
#286 = SECURITY_CLASSIFICATION_LEVEL ( 'unclassified' ) ;
#287 = CIRCLE ( 'NONE', #41, 0.1850000000000000533 ) ;
#288 = LOCAL_TIME ( 8, 11, 7.000000000000000000, #221 ) ;
#289 = COORDINATED_UNIVERSAL_TIME_OFFSET ( 1, 0, .AHEAD. ) ;
#290 = EDGE_CURVE ( 'NONE', #299, #299, #325, .T. ) ;
#291 = DIRECTION ( 'NONE',  ( -3.491481338843133355E-15, 0.0000000000000000000, -1.000000000000000000 ) ) ;
#292 = ORIENTED_EDGE ( 'NONE', *, *, #290, .T. ) ;
#293 = FACE_OUTER_BOUND ( 'NONE', #285, .T. ) ;
#294 = LOCAL_TIME ( 8, 11, 7.000000000000000000, #289 ) ;
#295 = FACE_OUTER_BOUND ( 'NONE', #252, .T. ) ;
#296 = DIRECTION ( 'NONE',  ( -1.000000000000000000, 0.0000000000000000000, 5.782411586589379332E-15 ) ) ;
#297 = EDGE_CURVE ( 'NONE', #245, #245, #96, .T. ) ;
#298 = CARTESIAN_POINT ( 'NONE',  ( 9.246646801157338493E-16, 0.0000000000000000000, 0.2648344901141909125 ) ) ;
#299 = VERTEX_POINT ( 'NONE', #31 ) ;
#300 = CC_DESIGN_DATE_AND_TIME_ASSIGNMENT ( #68, #95, ( #269 ) ) ;
#301 = VERTEX_POINT ( 'NONE', #302 ) ;
#302 = CARTESIAN_POINT ( 'NONE',  ( -1.499999999999863665, 0.0000000000000000000, 37.70000000000000284 ) ) ;
#303 = VERTEX_POINT ( 'NONE', #163 ) ;
#304 = DIRECTION ( 'NONE',  ( 3.491481338843133355E-15, 0.0000000000000000000, 1.000000000000000000 ) ) ;
#305 = PERSON_AND_ORGANIZATION ( #233, #77 ) ;
#306 = PERSON_AND_ORGANIZATION ( #233, #77 ) ;
#307 = ORIENTED_EDGE ( 'NONE', *, *, #108, .T. ) ;
#308 = CC_DESIGN_PERSON_AND_ORGANIZATION_ASSIGNMENT ( #306, #113, ( #270 ) ) ;
#309 = COORDINATED_UNIVERSAL_TIME_OFFSET ( 1, 0, .AHEAD. ) ;
#310 = PERSON_AND_ORGANIZATION ( #233, #77 ) ;
#311 = EDGE_CURVE ( 'NONE', #303, #303, #86, .T. ) ;
#312 = CYLINDRICAL_SURFACE ( 'NONE', #315, 0.1099999999999989875 ) ;
#313 = CYLINDRICAL_SURFACE ( 'NONE', #333, 1.499999999999995337 ) ;
#314 = PRODUCT_DEFINITION_FORMATION_WITH_SPECIFIED_SOURCE ( 'ANY', '', #202, .NOT_KNOWN. ) ;
#315 = AXIS2_PLACEMENT_3D ( 'NONE', #178, #291, #42 ) ;
#316 = FACE_OUTER_BOUND ( 'NONE', #89, .T. ) ;
#317 = DIRECTION ( 'NONE',  ( -1.000000000000000000, 0.0000000000000000000, 3.491481338843133355E-15 ) ) ;
#318 = DIRECTION ( 'NONE',  ( -3.491481338843133355E-15, 0.0000000000000000000, -1.000000000000000000 ) ) ;
#319 = DIRECTION ( 'NONE',  ( -1.000000000000000000, 0.0000000000000000000, 3.491481338843133355E-15 ) ) ;
#320 = CARTESIAN_POINT ( 'NONE',  ( -0.1849999999999998035, 0.0000000000000000000, 0.06664101615137801859 ) ) ;
#321 = CARTESIAN_POINT ( 'NONE',  ( 2.326758642940779299E-16, 0.0000000000000000000, 0.06664101615137736634 ) ) ;
#322 = DIRECTION ( 'NONE',  ( 1.000000000000000000, 0.0000000000000000000, 0.0000000000000000000 ) ) ;
#323 = AXIS2_PLACEMENT_3D ( 'NONE', #16, #131, #193 ) ;
#324 = DIRECTION ( 'NONE',  ( 1.000000000000000000, 0.0000000000000000000, -3.516331370223256547E-15 ) ) ;
#325 = CIRCLE ( 'NONE', #18, 1.199999999999995293 ) ;
#326 = CARTESIAN_POINT ( 'NONE',  ( -0.1099999999999980715, 0.0000000000000000000, 0.2648344901141913010 ) ) ;
#327 = MECHANICAL_CONTEXT ( 'NONE', #177, 'mechanical' ) ;
#328 = EDGE_LOOP ( 'NONE', ( #8 ) ) ;
#329 = VERTEX_POINT ( 'NONE', #1 ) ;
#330 = CALENDAR_DATE ( 2021, 17, 12 ) ;
#331 = ORIENTED_EDGE ( 'NONE', *, *, #184, .T. ) ;
#332 = SHAPE_DEFINITION_REPRESENTATION ( #9, #20 ) ;
#333 = AXIS2_PLACEMENT_3D ( 'NONE', #154, #153, #261 ) ;
#334 = ADVANCED_FACE ( 'NONE', ( #83, #295 ), #237, .T. ) ;
#335 = ORIENTED_EDGE ( 'NONE', *, *, #102, .F. ) ;
#336 = ORIENTED_EDGE ( 'NONE', *, *, #102, .T. ) ;
#337 = ADVANCED_FACE ( 'NONE', ( #51, #161 ), #214, .T. ) ;
#338 = CIRCLE ( 'NONE', #150, 0.1440741737109289544 ) ;
#339 = AXIS2_PLACEMENT_3D ( 'NONE', #111, #107, #106 ) ;
#340 = FACE_OUTER_BOUND ( 'NONE', #225, .T. ) ;
#341 = PLANE ( 'NONE',  #146 ) ;
#342 = APPLICATION_CONTEXT ( 'configuration controlled 3d designs of mechanical parts and assemblies' ) ;
#343 = EDGE_LOOP ( 'NONE', ( #292 ) ) ;
#344 = CC_DESIGN_APPROVAL ( #211, ( #314 ) ) ;
#345 = AXIS2_PLACEMENT_3D ( 'NONE', #240, #53, #274 ) ;
#346 = CYLINDRICAL_SURFACE ( 'NONE', #179, 0.1850000000000000533 ) ;
#347 = DIRECTION ( 'NONE',  ( 1.000000000000000000, 0.0000000000000000000, -3.491481338843133355E-15 ) ) ;
#348 = CARTESIAN_POINT ( 'NONE',  ( 5.002665419765867200E-16, -1.242773525606277849E-16, 0.1432820323027546028 ) ) ;
#349 = FACE_OUTER_BOUND ( 'NONE', #145, .T. ) ;
#350 = FACE_OUTER_BOUND ( 'NONE', #194, .T. ) ;
#351 = CARTESIAN_POINT ( 'NONE',  ( -0.1440741737109250686, 0.0000000000000000000, 1.108819045102514611 ) ) ;
#352 = DIRECTION ( 'NONE',  ( -3.491481338843133355E-15, 0.0000000000000000000, -1.000000000000000000 ) ) ;
#353 = DIRECTION ( 'NONE',  ( 1.000000000000000000, 0.0000000000000000000, -3.491481338843133355E-15 ) ) ;
#354 = APPROVAL_STATUS ( 'not_yet_approved' ) ;
#355 = CARTESIAN_POINT ( 'NONE',  ( 2.326758642940779299E-16, 0.0000000000000000000, 0.06664101615137736634 ) ) ;
#356 = PERSON_AND_ORGANIZATION_ROLE ( 'design_supplier' ) ;
#357 =( LENGTH_UNIT ( ) NAMED_UNIT ( * ) SI_UNIT ( .MILLI., .METRE. ) );
#358 = EDGE_LOOP ( 'NONE', ( #121 ) ) ;
#359 = CC_DESIGN_PERSON_AND_ORGANIZATION_ASSIGNMENT ( #60, #141, ( #314 ) ) ;
#360 = CARTESIAN_POINT ( 'NONE',  ( 2.153965756939081545E-14, 0.0000000000000000000, 6.169203120108257998 ) ) ;
#361 = AXIS2_PLACEMENT_3D ( 'NONE', #348, #182, #168 ) ;
#362 = CARTESIAN_POINT ( 'NONE',  ( -0.1249999999999998890, 0.0000000000000000000, 0.03200000000000032679 ) ) ;
#363 = ORIENTED_EDGE ( 'NONE', *, *, #171, .T. ) ;
ENDSEC;
END-ISO-10303-21;
