ISO-10303-21;
HEADER;
FILE_DESCRIPTION (( 'STEP AP203' ),
    '1' );
FILE_NAME ('37806.step',
    '2021-12-06T12:59:35',
    ( '' ),
    ( '' ),
    'SwSTEP 2.0',
    'SolidWorks 2019',
    '' );
FILE_SCHEMA (( 'CONFIG_CONTROL_DESIGN' ));
ENDSEC;

DATA;
#1 = ORIENTED_EDGE ( 'NONE', *, *, #17, .F. ) ;
#2 = CC_DESIGN_APPROVAL ( #7, ( #35 ) ) ;
#3 = FACE_OUTER_BOUND ( 'NONE', #83, .T. ) ;
#4 = DATE_AND_TIME ( #117, #166 ) ;
#5 = COORDINATED_UNIVERSAL_TIME_OFFSET ( 1, 0, .AHEAD. ) ;
#6 = DESIGN_CONTEXT ( 'detailed design', #134, 'design' ) ;
#7 = APPROVAL ( #59, 'UNSPECIFIED' ) ;
#8 = CARTESIAN_POINT ( 'NONE',  ( 0.0000000000000000000, 25.00000000000000000, 0.0000000000000000000 ) ) ;
#9 = PERSON_AND_ORGANIZATION_ROLE ( 'design_owner' ) ;
#10 = CALENDAR_DATE ( 2021, 6, 12 ) ;
#11 = CIRCLE ( 'NONE', #137, 25.00000000000000000 ) ;
#12 = APPROVAL_ROLE ( '' ) ;
#13 = CIRCLE ( 'NONE', #97, 6.500000000000000000 ) ;
#14 = ORIENTED_EDGE ( 'NONE', *, *, #25, .F. ) ;
#15 = DIRECTION ( 'NONE',  ( -3.491481338843133355E-15, 1.224646799147353207E-16, -1.000000000000000000 ) ) ;
#16 = FACE_OUTER_BOUND ( 'NONE', #142, .T. ) ;
#17 = EDGE_CURVE ( 'NONE', #30, #30, #11, .T. ) ;
#18 = EDGE_LOOP ( 'NONE', ( #14 ) ) ;
#19 = AXIS2_PLACEMENT_3D ( 'NONE', #28, #65, #49 ) ;
#20 = CARTESIAN_POINT ( 'NONE',  ( 6.982962677686263555E-15, -2.449293598294705428E-16, 1.999999999999999112 ) ) ;
#21 = PRODUCT ( '37806', '37806', '', ( #23 ) ) ;
#22 = PLANE ( 'NONE',  #141 ) ;
#23 = MECHANICAL_CONTEXT ( 'NONE', #61, 'mechanical' ) ;
#24 = PERSON_AND_ORGANIZATION ( #135, #69 ) ;
#25 = EDGE_CURVE ( 'NONE', #105, #105, #157, .T. ) ;
#26 = SECURITY_CLASSIFICATION ( '', '', #123 ) ;
#27 = DIRECTION ( 'NONE',  ( -3.491481338843133355E-15, 1.224646799147353207E-16, -1.000000000000000000 ) ) ;
#28 = CARTESIAN_POINT ( 'NONE',  ( -2.779290439833023007E-30, 9.748438587302075546E-32, -7.960204194457795477E-16 ) ) ;
#29 = AXIS2_PLACEMENT_3D ( 'NONE', #140, #27, #103 ) ;
#30 = VERTEX_POINT ( 'NONE', #8 ) ;
#31 = UNCERTAINTY_MEASURE_WITH_UNIT (LENGTH_MEASURE( 1.000000000000000082E-05 ), #41, 'distance_accuracy_value', 'NONE');
#32 = PRODUCT_DEFINITION_SHAPE ( 'NONE', 'NONE',  #35 ) ;
#33 = CARTESIAN_POINT ( 'NONE',  ( 6.982962677686266711E-15, 6.500000000000000000, 2.000000000000000000 ) ) ;
#34 = APPROVAL_DATE_TIME ( #163, #7 ) ;
#35 = PRODUCT_DEFINITION ( 'UNKNOWN', '', #127, #6 ) ;
#36 = ADVANCED_FACE ( 'NONE', ( #113, #102 ), #101, .T. ) ;
#37 = PERSON_AND_ORGANIZATION ( #135, #69 ) ;
#38 = ORIENTED_EDGE ( 'NONE', *, *, #144, .T. ) ;
#39 = ORIENTED_EDGE ( 'NONE', *, *, #25, .T. ) ;
#40 = DIRECTION ( 'NONE',  ( 4.740750632337811128E-31, 1.000000000000000000, 1.334402673828313093E-16 ) ) ;
#41 =( LENGTH_UNIT ( ) NAMED_UNIT ( * ) SI_UNIT ( .MILLI., .METRE. ) );
#42 = COORDINATED_UNIVERSAL_TIME_OFFSET ( 1, 0, .AHEAD. ) ;
#43 = CC_DESIGN_APPROVAL ( #79, ( #26 ) ) ;
#44 = CARTESIAN_POINT ( 'NONE',  ( 0.0000000000000000000, 6.500000000000000000, 0.0000000000000000000 ) ) ;
#45 = PERSON_AND_ORGANIZATION_ROLE ( 'creator' ) ;
#46 = COORDINATED_UNIVERSAL_TIME_OFFSET ( 1, 0, .AHEAD. ) ;
#47 = CC_DESIGN_PERSON_AND_ORGANIZATION_ASSIGNMENT ( #37, #88, ( #26 ) ) ;
#48 = EDGE_LOOP ( 'NONE', ( #126 ) ) ;
#49 = DIRECTION ( 'NONE',  ( 4.275831445896958607E-31, 1.000000000000000000, 1.224646799147353207E-16 ) ) ;
#50 = DIRECTION ( 'NONE',  ( 4.275831445896958607E-31, 1.000000000000000000, 1.224646799147353207E-16 ) ) ;
#51 = DIRECTION ( 'NONE',  ( -3.491481338843133355E-15, 1.224646799147353207E-16, -1.000000000000000000 ) ) ;
#52 = CC_DESIGN_PERSON_AND_ORGANIZATION_ASSIGNMENT ( #86, #9, ( #21 ) ) ;
#53 = DATE_TIME_ROLE ( 'creation_date' ) ;
#54 = PERSON_AND_ORGANIZATION_ROLE ( 'creator' ) ;
#55 = ADVANCED_FACE ( 'NONE', ( #3, #16 ), #114, .F. ) ;
#56 = VERTEX_POINT ( 'NONE', #33 ) ;
#57 = CC_DESIGN_DATE_AND_TIME_ASSIGNMENT ( #4, #53, ( #35 ) ) ;
#58 = DIRECTION ( 'NONE',  ( -4.275831445896958607E-31, -1.000000000000000000, -1.224646799147353207E-16 ) ) ;
#59 = APPROVAL_STATUS ( 'not_yet_approved' ) ;
#60 = APPROVAL_PERSON_ORGANIZATION ( #94, #138, #12 ) ;
#61 = APPLICATION_CONTEXT ( 'configuration controlled 3d designs of mechanical parts and assemblies' ) ;
#62 = APPROVAL_STATUS ( 'not_yet_approved' ) ;
#63 = ADVANCED_BREP_SHAPE_REPRESENTATION ( '37806', ( #152, #159 ), #162 ) ;
#64 = APPROVAL_DATE_TIME ( #164, #79 ) ;
#65 = DIRECTION ( 'NONE',  ( -3.491481338843133355E-15, 1.224646799147353207E-16, -1.000000000000000000 ) ) ;
#66 = ADVANCED_FACE ( 'NONE', ( #156, #104 ), #81, .T. ) ;
#67 = EDGE_LOOP ( 'NONE', ( #80 ) ) ;
#68 = DIRECTION ( 'NONE',  ( 4.275831445896958607E-31, 1.000000000000000000, 1.224646799147353207E-16 ) ) ;
#69 = ORGANIZATION ( 'UNSPECIFIED', 'UNSPECIFIED', '' ) ;
#70 = CC_DESIGN_SECURITY_CLASSIFICATION ( #26, ( #127 ) ) ;
#71 = ORIENTED_EDGE ( 'NONE', *, *, #161, .F. ) ;
#72 = DIRECTION ( 'NONE',  ( -3.491481338843133355E-15, 1.224646799147353207E-16, -1.000000000000000000 ) ) ;
#73 = DIRECTION ( 'NONE',  ( 3.491481338843133355E-15, -1.224646799147353207E-16, 1.000000000000000000 ) ) ;
#74 = VERTEX_POINT ( 'NONE', #96 ) ;
#75 =( NAMED_UNIT ( * ) SI_UNIT ( $, .STERADIAN. ) SOLID_ANGLE_UNIT ( ) );
#76 = FACE_OUTER_BOUND ( 'NONE', #48, .T. ) ;
#77 = DATE_TIME_ROLE ( 'classification_date' ) ;
#78 = DATE_AND_TIME ( #109, #165 ) ;
#79 = APPROVAL ( #62, 'UNSPECIFIED' ) ;
#80 = ORIENTED_EDGE ( 'NONE', *, *, #161, .T. ) ;
#81 = PLANE ( 'NONE',  #106 ) ;
#82 = ADVANCED_FACE ( 'NONE', ( #158, #76 ), #22, .T. ) ;
#83 = EDGE_LOOP ( 'NONE', ( #39 ) ) ;
#84 = CC_DESIGN_PERSON_AND_ORGANIZATION_ASSIGNMENT ( #24, #45, ( #127 ) ) ;
#85 = LOCAL_TIME ( 13, 59, 35.00000000000000000, #42 ) ;
#86 = PERSON_AND_ORGANIZATION ( #135, #69 ) ;
#87 = CARTESIAN_POINT ( 'NONE',  ( 0.0000000000000000000, 0.0000000000000000000, 0.0000000000000000000 ) ) ;
#88 = PERSON_AND_ORGANIZATION_ROLE ( 'classification_officer' ) ;
#89 = LOCAL_TIME ( 13, 59, 35.00000000000000000, #110 ) ;
#90 = SHAPE_DEFINITION_REPRESENTATION ( #32, #63 ) ;
#91 = CC_DESIGN_APPROVAL ( #138, ( #127 ) ) ;
#92 = EDGE_LOOP ( 'NONE', ( #167 ) ) ;
#93 = CLOSED_SHELL ( 'NONE', ( #66, #36, #82, #55 ) ) ;
#94 = PERSON_AND_ORGANIZATION ( #135, #69 ) ;
#95 = PRODUCT_RELATED_PRODUCT_CATEGORY ( 'detail', '', ( #21 ) ) ;
#96 = CARTESIAN_POINT ( 'NONE',  ( 6.982962677686266711E-15, 25.00000000000000000, 2.000000000000000000 ) ) ;
#97 = AXIS2_PLACEMENT_3D ( 'NONE', #20, #132, #40 ) ;
#98 =( NAMED_UNIT ( * ) PLANE_ANGLE_UNIT ( ) SI_UNIT ( $, .RADIAN. ) );
#99 = CC_DESIGN_PERSON_AND_ORGANIZATION_ASSIGNMENT ( #153, #148, ( #127 ) ) ;
#100 = LOCAL_TIME ( 13, 59, 35.00000000000000000, #111 ) ;
#101 = CYLINDRICAL_SURFACE ( 'NONE', #29, 25.00000000000000000 ) ;
#102 = FACE_OUTER_BOUND ( 'NONE', #139, .T. ) ;
#103 = DIRECTION ( 'NONE',  ( 4.275831445896958607E-31, 1.000000000000000000, 1.224646799147353207E-16 ) ) ;
#104 = FACE_BOUND ( 'NONE', #18, .T. ) ;
#105 = VERTEX_POINT ( 'NONE', #44 ) ;
#106 = AXIS2_PLACEMENT_3D ( 'NONE', #125, #145, #130 ) ;
#107 = CARTESIAN_POINT ( 'NONE',  ( 6.982962677686261977E-15, 6.500000000000000000, 1.999999999999998668 ) ) ;
#108 = DIRECTION ( 'NONE',  ( 1.000000000000000000, 0.0000000000000000000, 0.0000000000000000000 ) ) ;
#109 = CALENDAR_DATE ( 2021, 6, 12 ) ;
#110 = COORDINATED_UNIVERSAL_TIME_OFFSET ( 1, 0, .AHEAD. ) ;
#111 = COORDINATED_UNIVERSAL_TIME_OFFSET ( 1, 0, .AHEAD. ) ;
#112 = CIRCLE ( 'NONE', #155, 25.00000000000000000 ) ;
#113 = FACE_OUTER_BOUND ( 'NONE', #168, .T. ) ;
#114 = CYLINDRICAL_SURFACE ( 'NONE', #115, 6.500000000000000000 ) ;
#115 = AXIS2_PLACEMENT_3D ( 'NONE', #169, #51, #50 ) ;
#116 = CARTESIAN_POINT ( 'NONE',  ( -1.068957861474239634E-29, 3.749399456654644239E-31, -3.061616997868383043E-15 ) ) ;
#117 = CALENDAR_DATE ( 2021, 6, 12 ) ;
#118 = APPLICATION_PROTOCOL_DEFINITION ( 'international standard', 'config_control_design', 1994, #61 ) ;
#119 = CC_DESIGN_PERSON_AND_ORGANIZATION_ASSIGNMENT ( #128, #54, ( #35 ) ) ;
#120 = APPROVAL_ROLE ( '' ) ;
#121 = PERSON_AND_ORGANIZATION ( #135, #69 ) ;
#122 = CALENDAR_DATE ( 2021, 6, 12 ) ;
#123 = SECURITY_CLASSIFICATION_LEVEL ( 'unclassified' ) ;
#124 = APPROVAL_PERSON_ORGANIZATION ( #121, #7, #120 ) ;
#125 = CARTESIAN_POINT ( 'NONE',  ( -3.955144087454686842E-30, 6.500000000000000000, -1.132798289211301895E-15 ) ) ;
#126 = ORIENTED_EDGE ( 'NONE', *, *, #144, .F. ) ;
#127 = PRODUCT_DEFINITION_FORMATION_WITH_SPECIFIED_SOURCE ( 'ANY', '', #21, .NOT_KNOWN. ) ;
#128 = PERSON_AND_ORGANIZATION ( #135, #69 ) ;
#129 = CARTESIAN_POINT ( 'NONE',  ( 6.982962677686256455E-15, -2.449293598294702963E-16, 1.999999999999997113 ) ) ;
#130 = DIRECTION ( 'NONE',  ( 4.275831445896958607E-31, 1.000000000000000000, 1.224646799147353207E-16 ) ) ;
#131 = DIRECTION ( 'NONE',  ( 4.314083075427408311E-31, 1.000000000000000000, 1.214306433183764966E-16 ) ) ;
#132 = DIRECTION ( 'NONE',  ( -3.491481338843133355E-15, 1.224646799147353207E-16, -1.000000000000000000 ) ) ;
#133 = CALENDAR_DATE ( 2021, 6, 12 ) ;
#134 = APPLICATION_CONTEXT ( 'configuration controlled 3d designs of mechanical parts and assemblies' ) ;
#135 = PERSON ( 'UNSPECIFIED', 'UNSPECIFIED', 'UNSPECIFIED', ('UNSPECIFIED'), ('UNSPECIFIED'), ('UNSPECIFIED') ) ;
#136 = DATE_AND_TIME ( #133, #100 ) ;
#137 = AXIS2_PLACEMENT_3D ( 'NONE', #116, #15, #68 ) ;
#138 = APPROVAL ( #143, 'UNSPECIFIED' ) ;
#139 = EDGE_LOOP ( 'NONE', ( #1 ) ) ;
#140 = CARTESIAN_POINT ( 'NONE',  ( 0.0000000000000000000, 0.0000000000000000000, 0.0000000000000000000 ) ) ;
#141 = AXIS2_PLACEMENT_3D ( 'NONE', #107, #73, #58 ) ;
#142 = EDGE_LOOP ( 'NONE', ( #71 ) ) ;
#143 = APPROVAL_STATUS ( 'not_yet_approved' ) ;
#144 = EDGE_CURVE ( 'NONE', #74, #74, #112, .T. ) ;
#145 = DIRECTION ( 'NONE',  ( -3.491481338843133355E-15, 1.224646799147353207E-16, -1.000000000000000000 ) ) ;
#146 = CC_DESIGN_DATE_AND_TIME_ASSIGNMENT ( #136, #77, ( #26 ) ) ;
#147 = DIRECTION ( 'NONE',  ( 0.0000000000000000000, 0.0000000000000000000, 1.000000000000000000 ) ) ;
#148 = PERSON_AND_ORGANIZATION_ROLE ( 'design_supplier' ) ;
#149 = APPROVAL_PERSON_ORGANIZATION ( #150, #79, #151 ) ;
#150 = PERSON_AND_ORGANIZATION ( #135, #69 ) ;
#151 = APPROVAL_ROLE ( '' ) ;
#152 = MANIFOLD_SOLID_BREP ( 'Corps-Déplacer/Copier1', #93 ) ;
#153 = PERSON_AND_ORGANIZATION ( #135, #69 ) ;
#154 = APPROVAL_DATE_TIME ( #78, #138 ) ;
#155 = AXIS2_PLACEMENT_3D ( 'NONE', #129, #72, #131 ) ;
#156 = FACE_OUTER_BOUND ( 'NONE', #92, .T. ) ;
#157 = CIRCLE ( 'NONE', #19, 6.500000000000000000 ) ;
#158 = FACE_BOUND ( 'NONE', #67, .T. ) ;
#159 = AXIS2_PLACEMENT_3D ( 'NONE', #87, #147, #108 ) ;
#160 = APPLICATION_PROTOCOL_DEFINITION ( 'international standard', 'config_control_design', 1994, #134 ) ;
#161 = EDGE_CURVE ( 'NONE', #56, #56, #13, .T. ) ;
#162 =( GEOMETRIC_REPRESENTATION_CONTEXT ( 3 ) GLOBAL_UNCERTAINTY_ASSIGNED_CONTEXT ( ( #31 ) ) GLOBAL_UNIT_ASSIGNED_CONTEXT ( ( #41, #98, #75 ) ) REPRESENTATION_CONTEXT ( 'NONE', 'WORKASPACE' ) );
#163 = DATE_AND_TIME ( #10, #85 ) ;
#164 = DATE_AND_TIME ( #122, #89 ) ;
#165 = LOCAL_TIME ( 13, 59, 35.00000000000000000, #46 ) ;
#166 = LOCAL_TIME ( 13, 59, 35.00000000000000000, #5 ) ;
#167 = ORIENTED_EDGE ( 'NONE', *, *, #17, .T. ) ;
#168 = EDGE_LOOP ( 'NONE', ( #38 ) ) ;
#169 = CARTESIAN_POINT ( 'NONE',  ( 0.0000000000000000000, 0.0000000000000000000, 0.0000000000000000000 ) ) ;
ENDSEC;
END-ISO-10303-21;
