ISO-10303-21;
HEADER;
FILE_DESCRIPTION (( 'STEP AP203' ),
    '1' );
FILE_NAME ('37732.step',
    '2021-12-06T12:59:35',
    ( '' ),
    ( '' ),
    'SwSTEP 2.0',
    'SolidWorks 2019',
    '' );
FILE_SCHEMA (( 'CONFIG_CONTROL_DESIGN' ));
ENDSEC;

DATA;
#1 = DIRECTION ( 'NONE',  ( 2.636089487708549105E-31, -1.000000000000000000, 7.550060366589243561E-17 ) ) ;
#2 = AXIS2_PLACEMENT_3D ( 'NONE', #145, #146, #1 ) ;
#3 = PLANE ( 'NONE',  #74 ) ;
#4 = PERSON_AND_ORGANIZATION_ROLE ( 'creator' ) ;
#5 = LOCAL_TIME ( 13, 59, 35.00000000000000000, #131 ) ;
#6 = EDGE_CURVE ( 'NONE', #13, #13, #39, .T. ) ;
#7 = COORDINATED_UNIVERSAL_TIME_OFFSET ( 1, 0, .AHEAD. ) ;
#8 = ORIENTED_EDGE ( 'NONE', *, *, #66, .T. ) ;
#9 = CIRCLE ( 'NONE', #102, 6.499999999999999112 ) ;
#10 = APPROVAL_PERSON_ORGANIZATION ( #70, #135, #159 ) ;
#11 = PERSON_AND_ORGANIZATION ( #138, #108 ) ;
#12 = APPLICATION_CONTEXT ( 'configuration controlled 3d designs of mechanical parts and assemblies' ) ;
#13 = VERTEX_POINT ( 'NONE', #26 ) ;
#14 = ADVANCED_FACE ( 'NONE', ( #19, #124 ), #62, .F. ) ;
#15 = PERSON_AND_ORGANIZATION_ROLE ( 'creator' ) ;
#16 = DATE_AND_TIME ( #132, #5 ) ;
#17 = EDGE_CURVE ( 'NONE', #23, #23, #121, .T. ) ;
#18 = ORIENTED_EDGE ( 'NONE', *, *, #6, .F. ) ;
#19 = FACE_OUTER_BOUND ( 'NONE', #75, .T. ) ;
#20 = AXIS2_PLACEMENT_3D ( 'NONE', #93, #47, #38 ) ;
#21 = DIRECTION ( 'NONE',  ( -2.636089487708549105E-31, 1.000000000000000000, -7.550060366589243561E-17 ) ) ;
#22 = FACE_BOUND ( 'NONE', #72, .T. ) ;
#23 = VERTEX_POINT ( 'NONE', #46 ) ;
#24 = COORDINATED_UNIVERSAL_TIME_OFFSET ( 1, 0, .AHEAD. ) ;
#25 = CC_DESIGN_PERSON_AND_ORGANIZATION_ASSIGNMENT ( #55, #58, ( #71 ) ) ;
#26 = CARTESIAN_POINT ( 'NONE',  ( 0.0000000000000000000, 25.00000000000000000, 0.0000000000000000000 ) ) ;
#27 = DATE_AND_TIME ( #96, #33 ) ;
#28 = ORIENTED_EDGE ( 'NONE', *, *, #66, .F. ) ;
#29 = ADVANCED_FACE ( 'NONE', ( #164, #154 ), #89, .T. ) ;
#30 = EDGE_LOOP ( 'NONE', ( #18 ) ) ;
#31 = APPROVAL ( #79, 'UNSPECIFIED' ) ;
#32 = CARTESIAN_POINT ( 'NONE',  ( 1.713458167010556831E-30, 3.705221750044210529E-32, 4.907539238283008746E-16 ) ) ;
#33 = LOCAL_TIME ( 13, 59, 35.00000000000000000, #7 ) ;
#34 = FACE_OUTER_BOUND ( 'NONE', #61, .T. ) ;
#35 =( NAMED_UNIT ( * ) PLANE_ANGLE_UNIT ( ) SI_UNIT ( $, .RADIAN. ) );
#36 = DIRECTION ( 'NONE',  ( -3.491481338843133355E-15, -7.550060366589243561E-17, -1.000000000000000000 ) ) ;
#37 = CC_DESIGN_DATE_AND_TIME_ASSIGNMENT ( #167, #90, ( #80 ) ) ;
#38 = DIRECTION ( 'NONE',  ( 1.000000000000000000, 0.0000000000000000000, 0.0000000000000000000 ) ) ;
#39 = CIRCLE ( 'NONE', #85, 25.00000000000000000 ) ;
#40 = CALENDAR_DATE ( 2021, 6, 12 ) ;
#41 = CC_DESIGN_SECURITY_CLASSIFICATION ( #42, ( #71 ) ) ;
#42 = SECURITY_CLASSIFICATION ( '', '', #109 ) ;
#43 = CLOSED_SHELL ( 'NONE', ( #119, #29, #148, #14 ) ) ;
#44 = CARTESIAN_POINT ( 'NONE',  ( 6.590223719271372587E-30, 1.425085288478542621E-31, 1.887515091647310829E-15 ) ) ;
#45 = DIRECTION ( 'NONE',  ( -2.636089487708548667E-31, 1.000000000000000000, -7.550060366589243561E-17 ) ) ;
#46 = CARTESIAN_POINT ( 'NONE',  ( 0.0000000000000000000, 6.500000000000000000, 0.0000000000000000000 ) ) ;
#47 = DIRECTION ( 'NONE',  ( 0.0000000000000000000, 0.0000000000000000000, 1.000000000000000000 ) ) ;
#48 = PERSON_AND_ORGANIZATION ( #138, #108 ) ;
#49 = AXIS2_PLACEMENT_3D ( 'NONE', #32, #88, #141 ) ;
#50 = CC_DESIGN_DATE_AND_TIME_ASSIGNMENT ( #27, #107, ( #42 ) ) ;
#51 = DIRECTION ( 'NONE',  ( -3.491481338843133355E-15, -7.550060366589243561E-17, -1.000000000000000000 ) ) ;
#52 = EDGE_CURVE ( 'NONE', #116, #116, #166, .T. ) ;
#53 = APPROVAL_ROLE ( '' ) ;
#54 = LOCAL_TIME ( 13, 59, 35.00000000000000000, #24 ) ;
#55 = PERSON_AND_ORGANIZATION ( #138, #108 ) ;
#56 = CC_DESIGN_PERSON_AND_ORGANIZATION_ASSIGNMENT ( #67, #78, ( #152 ) ) ;
#57 = APPROVAL_DATE_TIME ( #134, #87 ) ;
#58 = PERSON_AND_ORGANIZATION_ROLE ( 'design_supplier' ) ;
#59 = CC_DESIGN_PERSON_AND_ORGANIZATION_ASSIGNMENT ( #120, #4, ( #71 ) ) ;
#60 = DIRECTION ( 'NONE',  ( -2.465190328815661892E-31, 1.000000000000000000, -6.938893903907228378E-17 ) ) ;
#61 = EDGE_LOOP ( 'NONE', ( #136 ) ) ;
#62 = CYLINDRICAL_SURFACE ( 'NONE', #111, 6.499999999999999112 ) ;
#63 =( LENGTH_UNIT ( ) NAMED_UNIT ( * ) SI_UNIT ( .MILLI., .METRE. ) );
#64 = PRODUCT_RELATED_PRODUCT_CATEGORY ( 'detail', '', ( #152 ) ) ;
#65 = PERSON_AND_ORGANIZATION ( #138, #108 ) ;
#66 = EDGE_CURVE ( 'NONE', #129, #129, #9, .T. ) ;
#67 = PERSON_AND_ORGANIZATION ( #138, #108 ) ;
#68 = APPROVAL_ROLE ( '' ) ;
#69 = DESIGN_CONTEXT ( 'detailed design', #150, 'design' ) ;
#70 = PERSON_AND_ORGANIZATION ( #138, #108 ) ;
#71 = PRODUCT_DEFINITION_FORMATION_WITH_SPECIFIED_SOURCE ( 'ANY', '', #152, .NOT_KNOWN. ) ;
#72 = EDGE_LOOP ( 'NONE', ( #8 ) ) ;
#73 = EDGE_LOOP ( 'NONE', ( #28 ) ) ;
#74 = AXIS2_PLACEMENT_3D ( 'NONE', #128, #51, #130 ) ;
#75 = EDGE_LOOP ( 'NONE', ( #110 ) ) ;
#76 = CARTESIAN_POINT ( 'NONE',  ( 8.728703347107839699E-15, 1.887515091647312061E-16, 2.500000000000001776 ) ) ;
#77 = CC_DESIGN_APPROVAL ( #87, ( #71 ) ) ;
#78 = PERSON_AND_ORGANIZATION_ROLE ( 'design_owner' ) ;
#79 = APPROVAL_STATUS ( 'not_yet_approved' ) ;
#80 = PRODUCT_DEFINITION ( 'UNKNOWN', '', #71, #69 ) ;
#81 = APPROVAL_DATE_TIME ( #169, #31 ) ;
#82 =( NAMED_UNIT ( * ) SI_UNIT ( $, .STERADIAN. ) SOLID_ANGLE_UNIT ( ) );
#83 = APPROVAL_DATE_TIME ( #16, #135 ) ;
#84 = APPROVAL_STATUS ( 'not_yet_approved' ) ;
#85 = AXIS2_PLACEMENT_3D ( 'NONE', #44, #98, #137 ) ;
#86 = EDGE_LOOP ( 'NONE', ( #112 ) ) ;
#87 = APPROVAL ( #168, 'UNSPECIFIED' ) ;
#88 = DIRECTION ( 'NONE',  ( -3.491481338843133355E-15, -7.550060366589243561E-17, -1.000000000000000000 ) ) ;
#89 = CYLINDRICAL_SURFACE ( 'NONE', #117, 25.00000000000000000 ) ;
#90 = DATE_TIME_ROLE ( 'creation_date' ) ;
#91 = MANIFOLD_SOLID_BREP ( 'Corps-Déplacer/Copier1', #43 ) ;
#92 = ADVANCED_BREP_SHAPE_REPRESENTATION ( '37732', ( #91, #20 ), #151 ) ;
#93 = CARTESIAN_POINT ( 'NONE',  ( 0.0000000000000000000, 0.0000000000000000000, 0.0000000000000000000 ) ) ;
#94 = PERSON_AND_ORGANIZATION ( #138, #108 ) ;
#95 = LOCAL_TIME ( 13, 59, 35.00000000000000000, #149 ) ;
#96 = CALENDAR_DATE ( 2021, 6, 12 ) ;
#97 = CARTESIAN_POINT ( 'NONE',  ( 8.728703347107834966E-15, 1.887515091647311322E-16, 2.500000000000000444 ) ) ;
#98 = DIRECTION ( 'NONE',  ( -3.491481338843133355E-15, -7.550060366589243561E-17, -1.000000000000000000 ) ) ;
#99 = FACE_BOUND ( 'NONE', #86, .T. ) ;
#100 = CARTESIAN_POINT ( 'NONE',  ( 8.728703347107833388E-15, 25.00000000000000000, 2.500000000000000000 ) ) ;
#101 = COORDINATED_UNIVERSAL_TIME_OFFSET ( 1, 0, .AHEAD. ) ;
#102 = AXIS2_PLACEMENT_3D ( 'NONE', #97, #36, #143 ) ;
#103 = APPLICATION_PROTOCOL_DEFINITION ( 'international standard', 'config_control_design', 1994, #12 ) ;
#104 = CC_DESIGN_APPROVAL ( #135, ( #42 ) ) ;
#105 = UNCERTAINTY_MEASURE_WITH_UNIT (LENGTH_MEASURE( 1.000000000000000082E-05 ), #63, 'distance_accuracy_value', 'NONE');
#106 = SHAPE_DEFINITION_REPRESENTATION ( #125, #92 ) ;
#107 = DATE_TIME_ROLE ( 'classification_date' ) ;
#108 = ORGANIZATION ( 'UNSPECIFIED', 'UNSPECIFIED', '' ) ;
#109 = SECURITY_CLASSIFICATION_LEVEL ( 'unclassified' ) ;
#110 = ORIENTED_EDGE ( 'NONE', *, *, #17, .T. ) ;
#111 = AXIS2_PLACEMENT_3D ( 'NONE', #113, #163, #45 ) ;
#112 = ORIENTED_EDGE ( 'NONE', *, *, #17, .F. ) ;
#113 = CARTESIAN_POINT ( 'NONE',  ( 0.0000000000000000000, 0.0000000000000000000, 0.0000000000000000000 ) ) ;
#114 = APPLICATION_PROTOCOL_DEFINITION ( 'international standard', 'config_control_design', 1994, #150 ) ;
#115 = MECHANICAL_CONTEXT ( 'NONE', #12, 'mechanical' ) ;
#116 = VERTEX_POINT ( 'NONE', #100 ) ;
#117 = AXIS2_PLACEMENT_3D ( 'NONE', #161, #142, #21 ) ;
#118 = FACE_OUTER_BOUND ( 'NONE', #162, .T. ) ;
#119 = ADVANCED_FACE ( 'NONE', ( #118, #99 ), #3, .T. ) ;
#120 = PERSON_AND_ORGANIZATION ( #138, #108 ) ;
#121 = CIRCLE ( 'NONE', #49, 6.500000000000000000 ) ;
#122 = ORIENTED_EDGE ( 'NONE', *, *, #52, .T. ) ;
#123 = EDGE_LOOP ( 'NONE', ( #122 ) ) ;
#124 = FACE_OUTER_BOUND ( 'NONE', #73, .T. ) ;
#125 = PRODUCT_DEFINITION_SHAPE ( 'NONE', 'NONE',  #80 ) ;
#126 = ORIENTED_EDGE ( 'NONE', *, *, #6, .T. ) ;
#127 = DIRECTION ( 'NONE',  ( -3.491481338843133355E-15, -7.550060366589243561E-17, -1.000000000000000000 ) ) ;
#128 = CARTESIAN_POINT ( 'NONE',  ( 2.438382776130408054E-30, 6.500000000000000000, 6.983805839095051249E-16 ) ) ;
#129 = VERTEX_POINT ( 'NONE', #155 ) ;
#130 = DIRECTION ( 'NONE',  ( -2.636089487708549105E-31, 1.000000000000000000, -7.550060366589243561E-17 ) ) ;
#131 = COORDINATED_UNIVERSAL_TIME_OFFSET ( 1, 0, .AHEAD. ) ;
#132 = CALENDAR_DATE ( 2021, 6, 12 ) ;
#133 = AXIS2_PLACEMENT_3D ( 'NONE', #76, #127, #60 ) ;
#134 = DATE_AND_TIME ( #40, #95 ) ;
#135 = APPROVAL ( #84, 'UNSPECIFIED' ) ;
#136 = ORIENTED_EDGE ( 'NONE', *, *, #52, .F. ) ;
#137 = DIRECTION ( 'NONE',  ( -2.636089487708549105E-31, 1.000000000000000000, -7.550060366589243561E-17 ) ) ;
#138 = PERSON ( 'UNSPECIFIED', 'UNSPECIFIED', 'UNSPECIFIED', ('UNSPECIFIED'), ('UNSPECIFIED'), ('UNSPECIFIED') ) ;
#139 = CC_DESIGN_APPROVAL ( #31, ( #80 ) ) ;
#140 = APPROVAL_PERSON_ORGANIZATION ( #65, #87, #53 ) ;
#141 = DIRECTION ( 'NONE',  ( -2.636089487708549105E-31, 1.000000000000000000, -7.550060366589244794E-17 ) ) ;
#142 = DIRECTION ( 'NONE',  ( -3.491481338843133355E-15, -7.550060366589243561E-17, -1.000000000000000000 ) ) ;
#143 = DIRECTION ( 'NONE',  ( -2.370375316168906002E-31, 1.000000000000000000, -6.672013369141566696E-17 ) ) ;
#144 = CALENDAR_DATE ( 2021, 6, 12 ) ;
#145 = CARTESIAN_POINT ( 'NONE',  ( 8.728703347107836544E-15, 6.499999999999999112, 2.500000000000000888 ) ) ;
#146 = DIRECTION ( 'NONE',  ( 3.491481338843133355E-15, 7.550060366589243561E-17, 1.000000000000000000 ) ) ;
#147 = PERSON_AND_ORGANIZATION_ROLE ( 'classification_officer' ) ;
#148 = ADVANCED_FACE ( 'NONE', ( #22, #34 ), #157, .T. ) ;
#149 = COORDINATED_UNIVERSAL_TIME_OFFSET ( 1, 0, .AHEAD. ) ;
#150 = APPLICATION_CONTEXT ( 'configuration controlled 3d designs of mechanical parts and assemblies' ) ;
#151 =( GEOMETRIC_REPRESENTATION_CONTEXT ( 3 ) GLOBAL_UNCERTAINTY_ASSIGNED_CONTEXT ( ( #105 ) ) GLOBAL_UNIT_ASSIGNED_CONTEXT ( ( #63, #35, #82 ) ) REPRESENTATION_CONTEXT ( 'NONE', 'WORKASPACE' ) );
#152 = PRODUCT ( '37732', '37732', '', ( #115 ) ) ;
#153 = APPROVAL_PERSON_ORGANIZATION ( #11, #31, #68 ) ;
#154 = FACE_OUTER_BOUND ( 'NONE', #30, .T. ) ;
#155 = CARTESIAN_POINT ( 'NONE',  ( 8.728703347107833388E-15, 6.499999999999999112, 2.500000000000000000 ) ) ;
#156 = CALENDAR_DATE ( 2021, 6, 12 ) ;
#157 = PLANE ( 'NONE',  #2 ) ;
#158 = LOCAL_TIME ( 13, 59, 35.00000000000000000, #101 ) ;
#159 = APPROVAL_ROLE ( '' ) ;
#160 = CC_DESIGN_PERSON_AND_ORGANIZATION_ASSIGNMENT ( #48, #15, ( #80 ) ) ;
#161 = CARTESIAN_POINT ( 'NONE',  ( 0.0000000000000000000, 0.0000000000000000000, 0.0000000000000000000 ) ) ;
#162 = EDGE_LOOP ( 'NONE', ( #126 ) ) ;
#163 = DIRECTION ( 'NONE',  ( -3.491481338843133355E-15, -7.550060366589243561E-17, -1.000000000000000000 ) ) ;
#164 = FACE_OUTER_BOUND ( 'NONE', #123, .T. ) ;
#165 = CC_DESIGN_PERSON_AND_ORGANIZATION_ASSIGNMENT ( #94, #147, ( #42 ) ) ;
#166 = CIRCLE ( 'NONE', #133, 25.00000000000000000 ) ;
#167 = DATE_AND_TIME ( #156, #158 ) ;
#168 = APPROVAL_STATUS ( 'not_yet_approved' ) ;
#169 = DATE_AND_TIME ( #144, #54 ) ;
ENDSEC;
END-ISO-10303-21;
