ISO-10303-21;
HEADER;
FILE_DESCRIPTION (( 'STEP AP203' ),
    '1' );
FILE_NAME ('37731.step',
    '2021-12-06T12:59:34',
    ( '' ),
    ( '' ),
    'SwSTEP 2.0',
    'SolidWorks 2019',
    '' );
FILE_SCHEMA (( 'CONFIG_CONTROL_DESIGN' ));
ENDSEC;

DATA;
#1 = AXIS2_PLACEMENT_3D ( 'NONE', #137, #34, #9 ) ;
#2 = LOCAL_TIME ( 13, 59, 34.00000000000000000, #139 ) ;
#3 = APPROVAL ( #52, 'UNSPECIFIED' ) ;
#4 = EDGE_CURVE ( 'NONE', #162, #162, #150, .T. ) ;
#5 = PLANE ( 'NONE',  #54 ) ;
#6 = ORIENTED_EDGE ( 'NONE', *, *, #119, .F. ) ;
#7 = ORIENTED_EDGE ( 'NONE', *, *, #119, .T. ) ;
#8 = DIRECTION ( 'NONE',  ( -9.414605313244818232E-31, 1.000000000000000000, -2.696450130924730107E-16 ) ) ;
#9 = DIRECTION ( 'NONE',  ( -9.501254392310362958E-31, 1.000000000000000000, -2.674365358797577440E-16 ) ) ;
#10 = PERSON_AND_ORGANIZATION ( #99, #135 ) ;
#11 = APPLICATION_CONTEXT ( 'configuration controlled 3d designs of mechanical parts and assemblies' ) ;
#12 = PERSON_AND_ORGANIZATION_ROLE ( 'design_supplier' ) ;
#13 = ORIENTED_EDGE ( 'NONE', *, *, #69, .T. ) ;
#14 = APPROVAL_ROLE ( '' ) ;
#15 = ADVANCED_FACE ( 'NONE', ( #63, #132 ), #93, .T. ) ;
#16 =( GEOMETRIC_REPRESENTATION_CONTEXT ( 3 ) GLOBAL_UNCERTAINTY_ASSIGNED_CONTEXT ( ( #31 ) ) GLOBAL_UNIT_ASSIGNED_CONTEXT ( ( #62, #133, #44 ) ) REPRESENTATION_CONTEXT ( 'NONE', 'WORKASPACE' ) );
#17 = SECURITY_CLASSIFICATION ( '', '', #155 ) ;
#18 = CC_DESIGN_PERSON_AND_ORGANIZATION_ASSIGNMENT ( #10, #88, ( #118 ) ) ;
#19 = LOCAL_TIME ( 13, 59, 34.00000000000000000, #30 ) ;
#20 = EDGE_LOOP ( 'NONE', ( #13 ) ) ;
#21 = CARTESIAN_POINT ( 'NONE',  ( 2.444036937190193349E-15, 15.00000000000000000, 0.6999999999999999556 ) ) ;
#22 = VERTEX_POINT ( 'NONE', #24 ) ;
#23 = ADVANCED_FACE ( 'NONE', ( #81, #138 ), #94, .T. ) ;
#24 = CARTESIAN_POINT ( 'NONE',  ( 0.0000000000000000000, 4.000000000000000000, 0.0000000000000000000 ) ) ;
#25 = ORIENTED_EDGE ( 'NONE', *, *, #144, .F. ) ;
#26 = DATE_AND_TIME ( #156, #29 ) ;
#27 = DATE_AND_TIME ( #43, #2 ) ;
#28 = CALENDAR_DATE ( 2021, 6, 12 ) ;
#29 = LOCAL_TIME ( 13, 59, 34.00000000000000000, #65 ) ;
#30 = COORDINATED_UNIVERSAL_TIME_OFFSET ( 1, 0, .AHEAD. ) ;
#31 = UNCERTAINTY_MEASURE_WITH_UNIT (LENGTH_MEASURE( 1.000000000000000082E-05 ), #62, 'distance_accuracy_value', 'NONE');
#32 = ADVANCED_BREP_SHAPE_REPRESENTATION ( '37731', ( #143, #131 ), #16 ) ;
#33 = VERTEX_POINT ( 'NONE', #104 ) ;
#34 = DIRECTION ( 'NONE',  ( -3.491481338843133355E-15, -2.696450130924730107E-16, -1.000000000000000000 ) ) ;
#35 = EDGE_LOOP ( 'NONE', ( #83 ) ) ;
#36 = DIRECTION ( 'NONE',  ( 3.491481338843133355E-15, 2.696450130924730107E-16, 1.000000000000000000 ) ) ;
#37 = DIRECTION ( 'NONE',  ( -3.491481338843133355E-15, -2.696450130924730107E-16, -1.000000000000000000 ) ) ;
#38 = FACE_OUTER_BOUND ( 'NONE', #147, .T. ) ;
#39 = ADVANCED_FACE ( 'NONE', ( #105, #125 ), #5, .T. ) ;
#40 = CALENDAR_DATE ( 2021, 6, 12 ) ;
#41 = CC_DESIGN_PERSON_AND_ORGANIZATION_ASSIGNMENT ( #77, #76, ( #158 ) ) ;
#42 = MECHANICAL_CONTEXT ( 'NONE', #11, 'mechanical' ) ;
#43 = CALENDAR_DATE ( 2021, 6, 12 ) ;
#44 =( NAMED_UNIT ( * ) SI_UNIT ( $, .STERADIAN. ) SOLID_ANGLE_UNIT ( ) );
#45 = DESIGN_CONTEXT ( 'detailed design', #117, 'design' ) ;
#46 = DIRECTION ( 'NONE',  ( -3.491481338843133355E-15, -2.696450130924730107E-16, -1.000000000000000000 ) ) ;
#47 = DIRECTION ( 'NONE',  ( -9.414605313244818232E-31, 1.000000000000000000, -2.696450130924730107E-16 ) ) ;
#48 = APPROVAL ( #97, 'UNSPECIFIED' ) ;
#49 = FACE_OUTER_BOUND ( 'NONE', #124, .T. ) ;
#50 = DIRECTION ( 'NONE',  ( -3.491481338843133355E-15, -2.696450130924730107E-16, -1.000000000000000000 ) ) ;
#51 = APPROVAL_DATE_TIME ( #66, #57 ) ;
#52 = APPROVAL_STATUS ( 'not_yet_approved' ) ;
#53 = PERSON_AND_ORGANIZATION_ROLE ( 'creator' ) ;
#54 = AXIS2_PLACEMENT_3D ( 'NONE', #120, #37, #8 ) ;
#55 = APPROVAL_PERSON_ORGANIZATION ( #85, #48, #130 ) ;
#56 = ADVANCED_FACE ( 'NONE', ( #38, #49 ), #82, .F. ) ;
#57 = APPROVAL ( #128, 'UNSPECIFIED' ) ;
#58 = DIRECTION ( 'NONE',  ( -9.414605313244818232E-31, 1.000000000000000000, -2.696450130924730107E-16 ) ) ;
#59 = LOCAL_TIME ( 13, 59, 34.00000000000000000, #109 ) ;
#60 = DIRECTION ( 'NONE',  ( 9.414605313244818232E-31, -1.000000000000000000, 2.696450130924730107E-16 ) ) ;
#61 = CARTESIAN_POINT ( 'NONE',  ( 2.736911063134408342E-45, 15.00000000000000000, 0.0000000000000000000 ) ) ;
#62 =( LENGTH_UNIT ( ) NAMED_UNIT ( * ) SI_UNIT ( .MILLI., .METRE. ) );
#63 = FACE_OUTER_BOUND ( 'NONE', #121, .T. ) ;
#64 = PERSON_AND_ORGANIZATION ( #99, #135 ) ;
#65 = COORDINATED_UNIVERSAL_TIME_OFFSET ( 1, 0, .AHEAD. ) ;
#66 = DATE_AND_TIME ( #164, #59 ) ;
#67 = APPROVAL_PERSON_ORGANIZATION ( #64, #57, #14 ) ;
#68 = LOCAL_TIME ( 13, 59, 34.00000000000000000, #142 ) ;
#69 = EDGE_CURVE ( 'NONE', #33, #33, #146, .T. ) ;
#70 = EDGE_LOOP ( 'NONE', ( #6 ) ) ;
#71 = CARTESIAN_POINT ( 'NONE',  ( 3.765842125297927293E-30, 2.908337323425597212E-31, 1.078580052369892043E-15 ) ) ;
#72 = CARTESIAN_POINT ( 'NONE',  ( 2.444036937190198476E-15, 4.000000000000000000, 0.7000000000000015099 ) ) ;
#73 = DIRECTION ( 'NONE',  ( -3.491481338843133355E-15, -2.696450130924730107E-16, -1.000000000000000000 ) ) ;
#74 = CIRCLE ( 'NONE', #116, 15.00000000000000000 ) ;
#75 = DIRECTION ( 'NONE',  ( 0.0000000000000000000, 0.0000000000000000000, 1.000000000000000000 ) ) ;
#76 = PERSON_AND_ORGANIZATION_ROLE ( 'design_owner' ) ;
#77 = PERSON_AND_ORGANIZATION ( #99, #135 ) ;
#78 = CIRCLE ( 'NONE', #91, 4.000000000000000000 ) ;
#79 = APPROVAL_DATE_TIME ( #141, #48 ) ;
#80 = CC_DESIGN_PERSON_AND_ORGANIZATION_ASSIGNMENT ( #115, #98, ( #17 ) ) ;
#81 = FACE_BOUND ( 'NONE', #20, .T. ) ;
#82 = CYLINDRICAL_SURFACE ( 'NONE', #86, 4.000000000000000000 ) ;
#83 = ORIENTED_EDGE ( 'NONE', *, *, #4, .F. ) ;
#84 = DIRECTION ( 'NONE',  ( -3.491481338843133355E-15, -2.696450130924730107E-16, -1.000000000000000000 ) ) ;
#85 = PERSON_AND_ORGANIZATION ( #99, #135 ) ;
#86 = AXIS2_PLACEMENT_3D ( 'NONE', #95, #84, #134 ) ;
#87 = DATE_TIME_ROLE ( 'creation_date' ) ;
#88 = PERSON_AND_ORGANIZATION_ROLE ( 'creator' ) ;
#89 = DIRECTION ( 'NONE',  ( 1.000000000000000000, 0.0000000000000000000, 0.0000000000000000000 ) ) ;
#90 = APPROVAL_ROLE ( '' ) ;
#91 = AXIS2_PLACEMENT_3D ( 'NONE', #71, #50, #58 ) ;
#92 = CC_DESIGN_DATE_AND_TIME_ASSIGNMENT ( #110, #113, ( #17 ) ) ;
#93 = CYLINDRICAL_SURFACE ( 'NONE', #101, 15.00000000000000000 ) ;
#94 = PLANE ( 'NONE',  #111 ) ;
#95 = CARTESIAN_POINT ( 'NONE',  ( 0.0000000000000000000, 0.0000000000000000000, 0.0000000000000000000 ) ) ;
#96 = APPLICATION_PROTOCOL_DEFINITION ( 'international standard', 'config_control_design', 1994, #117 ) ;
#97 = APPROVAL_STATUS ( 'not_yet_approved' ) ;
#98 = PERSON_AND_ORGANIZATION_ROLE ( 'classification_officer' ) ;
#99 = PERSON ( 'UNSPECIFIED', 'UNSPECIFIED', 'UNSPECIFIED', ('UNSPECIFIED'), ('UNSPECIFIED'), ('UNSPECIFIED') ) ;
#100 = EDGE_LOOP ( 'NONE', ( #7 ) ) ;
#101 = AXIS2_PLACEMENT_3D ( 'NONE', #148, #73, #161 ) ;
#102 = CC_DESIGN_APPROVAL ( #3, ( #17 ) ) ;
#103 = CARTESIAN_POINT ( 'NONE',  ( 1.412190796986723138E-29, 1.090626496284599140E-30, 4.044675196387095309E-15 ) ) ;
#104 = CARTESIAN_POINT ( 'NONE',  ( 2.444036937190193349E-15, 4.000000000000000000, 0.6999999999999999556 ) ) ;
#105 = FACE_OUTER_BOUND ( 'NONE', #100, .T. ) ;
#106 = PRODUCT_RELATED_PRODUCT_CATEGORY ( 'detail', '', ( #158 ) ) ;
#107 = AXIS2_PLACEMENT_3D ( 'NONE', #123, #46, #108 ) ;
#108 = DIRECTION ( 'NONE',  ( -9.629649721936179265E-31, 1.000000000000000000, -2.710505431213761085E-16 ) ) ;
#109 = COORDINATED_UNIVERSAL_TIME_OFFSET ( 1, 0, .AHEAD. ) ;
#110 = DATE_AND_TIME ( #40, #68 ) ;
#111 = AXIS2_PLACEMENT_3D ( 'NONE', #72, #36, #60 ) ;
#112 = PERSON_AND_ORGANIZATION ( #99, #135 ) ;
#113 = DATE_TIME_ROLE ( 'classification_date' ) ;
#114 = EDGE_LOOP ( 'NONE', ( #25 ) ) ;
#115 = PERSON_AND_ORGANIZATION ( #99, #135 ) ;
#116 = AXIS2_PLACEMENT_3D ( 'NONE', #103, #163, #47 ) ;
#117 = APPLICATION_CONTEXT ( 'configuration controlled 3d designs of mechanical parts and assemblies' ) ;
#118 = PRODUCT_DEFINITION_FORMATION_WITH_SPECIFIED_SOURCE ( 'ANY', '', #158, .NOT_KNOWN. ) ;
#119 = EDGE_CURVE ( 'NONE', #149, #149, #74, .T. ) ;
#120 = CARTESIAN_POINT ( 'NONE',  ( 5.178032922284650290E-30, 4.000000000000000000, 1.483047572008601534E-15 ) ) ;
#121 = EDGE_LOOP ( 'NONE', ( #151 ) ) ;
#122 = APPROVAL_PERSON_ORGANIZATION ( #112, #3, #90 ) ;
#123 = CARTESIAN_POINT ( 'NONE',  ( 2.444036937190196899E-15, 1.887515091647314033E-16, 0.7000000000000010658 ) ) ;
#124 = EDGE_LOOP ( 'NONE', ( #168 ) ) ;
#125 = FACE_BOUND ( 'NONE', #114, .T. ) ;
#126 = CC_DESIGN_PERSON_AND_ORGANIZATION_ASSIGNMENT ( #169, #12, ( #118 ) ) ;
#127 = CARTESIAN_POINT ( 'NONE',  ( 0.0000000000000000000, 0.0000000000000000000, 0.0000000000000000000 ) ) ;
#128 = APPROVAL_STATUS ( 'not_yet_approved' ) ;
#129 = APPROVAL_DATE_TIME ( #27, #3 ) ;
#130 = APPROVAL_ROLE ( '' ) ;
#131 = AXIS2_PLACEMENT_3D ( 'NONE', #127, #75, #89 ) ;
#132 = FACE_OUTER_BOUND ( 'NONE', #70, .T. ) ;
#133 =( NAMED_UNIT ( * ) PLANE_ANGLE_UNIT ( ) SI_UNIT ( $, .RADIAN. ) );
#134 = DIRECTION ( 'NONE',  ( -9.414605313244818232E-31, 1.000000000000000000, -2.696450130924730107E-16 ) ) ;
#135 = ORGANIZATION ( 'UNSPECIFIED', 'UNSPECIFIED', '' ) ;
#136 = CC_DESIGN_DATE_AND_TIME_ASSIGNMENT ( #26, #87, ( #160 ) ) ;
#137 = CARTESIAN_POINT ( 'NONE',  ( 2.444036937190207548E-15, 1.887515091647321922E-16, 0.7000000000000039524 ) ) ;
#138 = FACE_OUTER_BOUND ( 'NONE', #35, .T. ) ;
#139 = COORDINATED_UNIVERSAL_TIME_OFFSET ( 1, 0, .AHEAD. ) ;
#140 = CC_DESIGN_SECURITY_CLASSIFICATION ( #17, ( #118 ) ) ;
#141 = DATE_AND_TIME ( #28, #19 ) ;
#142 = COORDINATED_UNIVERSAL_TIME_OFFSET ( 1, 0, .AHEAD. ) ;
#143 = MANIFOLD_SOLID_BREP ( 'Corps-Déplacer/Copier1', #165 ) ;
#144 = EDGE_CURVE ( 'NONE', #22, #22, #78, .T. ) ;
#145 = ORIENTED_EDGE ( 'NONE', *, *, #144, .T. ) ;
#146 = CIRCLE ( 'NONE', #107, 4.000000000000000000 ) ;
#147 = EDGE_LOOP ( 'NONE', ( #145 ) ) ;
#148 = CARTESIAN_POINT ( 'NONE',  ( 0.0000000000000000000, 0.0000000000000000000, 0.0000000000000000000 ) ) ;
#149 = VERTEX_POINT ( 'NONE', #61 ) ;
#150 = CIRCLE ( 'NONE', #1, 15.00000000000000000 ) ;
#151 = ORIENTED_EDGE ( 'NONE', *, *, #4, .T. ) ;
#152 = APPLICATION_PROTOCOL_DEFINITION ( 'international standard', 'config_control_design', 1994, #11 ) ;
#153 = PERSON_AND_ORGANIZATION ( #99, #135 ) ;
#154 = CC_DESIGN_APPROVAL ( #48, ( #118 ) ) ;
#155 = SECURITY_CLASSIFICATION_LEVEL ( 'unclassified' ) ;
#156 = CALENDAR_DATE ( 2021, 6, 12 ) ;
#157 = CC_DESIGN_APPROVAL ( #57, ( #160 ) ) ;
#158 = PRODUCT ( '37731', '37731', '', ( #42 ) ) ;
#159 = PRODUCT_DEFINITION_SHAPE ( 'NONE', 'NONE',  #160 ) ;
#160 = PRODUCT_DEFINITION ( 'UNKNOWN', '', #118, #45 ) ;
#161 = DIRECTION ( 'NONE',  ( -9.414605313244818232E-31, 1.000000000000000000, -2.696450130924730107E-16 ) ) ;
#162 = VERTEX_POINT ( 'NONE', #21 ) ;
#163 = DIRECTION ( 'NONE',  ( -3.491481338843133355E-15, -2.696450130924730107E-16, -1.000000000000000000 ) ) ;
#164 = CALENDAR_DATE ( 2021, 6, 12 ) ;
#165 = CLOSED_SHELL ( 'NONE', ( #39, #15, #23, #56 ) ) ;
#166 = SHAPE_DEFINITION_REPRESENTATION ( #159, #32 ) ;
#167 = CC_DESIGN_PERSON_AND_ORGANIZATION_ASSIGNMENT ( #153, #53, ( #160 ) ) ;
#168 = ORIENTED_EDGE ( 'NONE', *, *, #69, .F. ) ;
#169 = PERSON_AND_ORGANIZATION ( #99, #135 ) ;
ENDSEC;
END-ISO-10303-21;
