ISO-10303-21;
HEADER;
FILE_DESCRIPTION (( 'STEP AP203' ),
    '1' );
FILE_NAME ('376945.step',
    '2023-03-31T07:09:11',
    ( '' ),
    ( '' ),
    'SwSTEP 2.0',
    'SolidWorks 2022',
    '' );
FILE_SCHEMA (( 'CONFIG_CONTROL_DESIGN' ));
ENDSEC;

DATA;
#1 = DIRECTION ( 'NONE',  ( 0.000000000000000000, 0.000000000000000000, 1.000000000000000000 ) ) ;
#2 = CIRCLE ( 'NONE', #48, 5.999999999999987566 ) ;
#3 = VECTOR ( 'NONE', #143, 1000.000000000000000 ) ;
#4 = VERTEX_POINT ( 'NONE', #150 ) ;
#5 = CC_DESIGN_PERSON_AND_ORGANIZATION_ASSIGNMENT ( #51, #119, ( #246 ) ) ;
#6 = ORIENTED_EDGE ( 'NONE', *, *, #114, .T. ) ;
#7 = ORIENTED_EDGE ( 'NONE', *, *, #184, .F. ) ;
#8 = DIRECTION ( 'NONE',  ( -3.491481338843133355E-15, 1.224646799147353207E-16, -1.000000000000000000 ) ) ;
#9 = PRODUCT_DEFINITION_FORMATION_WITH_SPECIFIED_SOURCE ( 'ANY', '', #246, .NOT_KNOWN. ) ;
#10 = ORIENTED_EDGE ( 'NONE', *, *, #311, .F. ) ;
#11 = FACE_OUTER_BOUND ( 'NONE', #180, .T. ) ;
#12 = PERSON_AND_ORGANIZATION_ROLE ( 'classification_officer' ) ;
#13 = DIRECTION ( 'NONE',  ( 0.000000000000000000, 1.000000000000000000, 0.000000000000000000 ) ) ;
#14 = COORDINATED_UNIVERSAL_TIME_OFFSET ( 1, 0, .AHEAD. ) ;
#15 = CC_DESIGN_APPROVAL ( #124, ( #288 ) ) ;
#16 = FACE_OUTER_BOUND ( 'NONE', #247, .T. ) ;
#17 = APPROVAL ( #132, 'UNSPECIFIED' ) ;
#18 = DIRECTION ( 'NONE',  ( -3.491481338843133355E-15, 1.224646799147353207E-16, -1.000000000000000000 ) ) ;
#19 = CARTESIAN_POINT ( 'NONE',  ( 6.707293351750790677E-14, -5.999999999999987566, -1.347110508696816201E-15 ) ) ;
#20 = DIRECTION ( 'NONE',  ( -4.275831445896958607E-31, -1.000000000000000000, -1.224646799147353207E-16 ) ) ;
#21 = EDGE_CURVE ( 'NONE', #121, #125, #274, .T. ) ;
#22 =( LENGTH_UNIT ( ) NAMED_UNIT ( * ) SI_UNIT ( .MILLI., .METRE. ) );
#23 = AXIS2_PLACEMENT_3D ( 'NONE', #308, #160, #107 ) ;
#24 = CARTESIAN_POINT ( 'NONE',  ( 4.275865326027437796E-31, 5.999999999999987566, 1.224656502802390307E-16 ) ) ;
#25 = EDGE_LOOP ( 'NONE', ( #302, #50, #292, #169 ) ) ;
#26 = AXIS2_PLACEMENT_3D ( 'NONE', #113, #1, #267 ) ;
#27 = EDGE_CURVE ( 'NONE', #28, #204, #136, .T. ) ;
#28 = VERTEX_POINT ( 'NONE', #100 ) ;
#29 = CARTESIAN_POINT ( 'NONE',  ( 3.491481338843133355E-13, 3.599423478388442932E-32, 100.0000000000000000 ) ) ;
#30 = CALENDAR_DATE ( 2023, 31, 3 ) ;
#31 = ORIENTED_EDGE ( 'NONE', *, *, #118, .T. ) ;
#32 = ORIENTED_EDGE ( 'NONE', *, *, #311, .T. ) ;
#33 = EDGE_CURVE ( 'NONE', #293, #294, #194, .T. ) ;
#34 = VERTEX_POINT ( 'NONE', #223 ) ;
#35 = DIRECTION ( 'NONE',  ( -3.491481338843133355E-15, 1.224646799147353207E-16, -1.000000000000000000 ) ) ;
#36 = AXIS2_PLACEMENT_3D ( 'NONE', #61, #187, #281 ) ;
#37 = CARTESIAN_POINT ( 'NONE',  ( 3.491481338843133355E-13, -1.224646799147353217E-14, 100.0000000000000000 ) ) ;
#38 = PERSON_AND_ORGANIZATION_ROLE ( 'creator' ) ;
#39 = UNCERTAINTY_MEASURE_WITH_UNIT (LENGTH_MEASURE( 1.000000000000000082E-05 ), #22, 'distance_accuracy_value', 'NONE');
#40 = DIRECTION ( 'NONE',  ( 0.000000000000000000, 1.000000000000000000, 0.000000000000000000 ) ) ;
#41 = APPROVAL_ROLE ( '' ) ;
#42 = DIRECTION ( 'NONE',  ( -3.491481338843133355E-15, 1.224646799147353207E-16, -1.000000000000000000 ) ) ;
#43 = AXIS2_PLACEMENT_3D ( 'NONE', #208, #307, #304 ) ;
#44 = ADVANCED_FACE ( 'NONE', ( #271 ), #59, .F. ) ;
#45 = DIRECTION ( 'NONE',  ( -3.491481338843133355E-15, 1.224646799147353207E-16, -1.000000000000000000 ) ) ;
#46 = CARTESIAN_POINT ( 'NONE',  ( 3.477145543525469774E-13, -4.800000000000014921, 100.0000000000000000 ) ) ;
#47 = CARTESIAN_POINT ( 'NONE',  ( 3.491481338843133355E-13, -1.224646799147353217E-14, 100.0000000000000000 ) ) ;
#48 = AXIS2_PLACEMENT_3D ( 'NONE', #73, #99, #213 ) ;
#49 = APPROVAL_ROLE ( '' ) ;
#50 = ORIENTED_EDGE ( 'NONE', *, *, #184, .T. ) ;
#51 = PERSON_AND_ORGANIZATION ( #262, #224 ) ;
#52 = ORIENTED_EDGE ( 'NONE', *, *, #144, .T. ) ;
#53 = CONICAL_SURFACE ( 'NONE', #238, 4.800000000000003375, 0.7853981633974453924 ) ;
#54 = ADVANCED_FACE ( 'NONE', ( #55 ), #300, .T. ) ;
#55 = FACE_OUTER_BOUND ( 'NONE', #98, .T. ) ;
#56 = APPROVAL_DATE_TIME ( #156, #17 ) ;
#57 = VERTEX_POINT ( 'NONE', #226 ) ;
#58 = CALENDAR_DATE ( 2023, 31, 3 ) ;
#59 = PLANE ( 'NONE',  #215 ) ;
#60 = AXIS2_PLACEMENT_3D ( 'NONE', #255, #67, #40 ) ;
#61 = CARTESIAN_POINT ( 'NONE',  ( 3.491481338843133355E-13, -1.224646799147353217E-14, 100.0000000000000000 ) ) ;
#62 = EDGE_CURVE ( 'NONE', #4, #251, #197, .T. ) ;
#63 = CARTESIAN_POINT ( 'NONE',  ( 3.491481338843133355E-13, 4.799999999999990941, 100.0000000000000000 ) ) ;
#64 = AXIS2_PLACEMENT_3D ( 'NONE', #47, #158, #13 ) ;
#65 = LINE ( 'NONE', #163, #3 ) ;
#66 = ADVANCED_FACE ( 'NONE', ( #11 ), #53, .T. ) ;
#67 = DIRECTION ( 'NONE',  ( -3.491481338843133355E-15, 1.224646799147353207E-16, -1.000000000000000000 ) ) ;
#68 = APPLICATION_PROTOCOL_DEFINITION ( 'international standard', 'config_control_design', 1994, #245 ) ;
#69 = AXIS2_PLACEMENT_3D ( 'NONE', #112, #211, #20 ) ;
#70 = CC_DESIGN_SECURITY_CLASSIFICATION ( #258, ( #9 ) ) ;
#71 = DATE_AND_TIME ( #94, #287 ) ;
#72 = CC_DESIGN_DATE_AND_TIME_ASSIGNMENT ( #176, #159, ( #288 ) ) ;
#73 = CARTESIAN_POINT ( 'NONE',  ( -2.137912334935425954E-30, 7.498787029759189444E-32, -6.123224292081714145E-16 ) ) ;
#74 = VECTOR ( 'NONE', #110, 1000.000000000000114 ) ;
#75 = DIRECTION ( 'NONE',  ( -3.491481338843133355E-15, 1.224646799147353207E-16, -1.000000000000000000 ) ) ;
#76 = EDGE_CURVE ( 'NONE', #125, #294, #111, .T. ) ;
#77 = ORIENTED_EDGE ( 'NONE', *, *, #33, .F. ) ;
#78 = DATE_AND_TIME ( #30, #198 ) ;
#79 = ORIENTED_EDGE ( 'NONE', *, *, #280, .T. ) ;
#80 = ORIENTED_EDGE ( 'NONE', *, *, #221, .F. ) ;
#81 = ORIENTED_EDGE ( 'NONE', *, *, #27, .F. ) ;
#82 = DATE_AND_TIME ( #58, #268 ) ;
#83 = DESIGN_CONTEXT ( 'detailed design', #245, 'design' ) ;
#84 = ORIENTED_EDGE ( 'NONE', *, *, #144, .F. ) ;
#85 = CALENDAR_DATE ( 2023, 31, 3 ) ;
#86 = AXIS2_PLACEMENT_3D ( 'NONE', #129, #35, #148 ) ;
#87 = ADVANCED_FACE ( 'NONE', ( #237 ), #134, .F. ) ;
#88 = FACE_OUTER_BOUND ( 'NONE', #217, .T. ) ;
#89 = DIRECTION ( 'NONE',  ( 0.000000000000000000, 1.000000000000000000, 0.000000000000000000 ) ) ;
#90 = CARTESIAN_POINT ( 'NONE',  ( 1.326762908760390423E-13, -4.653657836759941941E-15, 38.00000000000000000 ) ) ;
#91 = APPROVAL_PERSON_ORGANIZATION ( #290, #124, #49 ) ;
#92 = CARTESIAN_POINT ( 'NONE',  ( 1.326762908760390423E-13, -4.653657836759941941E-15, 38.00000000000000000 ) ) ;
#93 = CARTESIAN_POINT ( 'NONE',  ( 6.707293351750788153E-14, -5.999999999999997335, 38.00000000000000000 ) ) ;
#94 = CALENDAR_DATE ( 2023, 31, 3 ) ;
#95 = CLOSED_SHELL ( 'NONE', ( #66, #108, #87, #241, #191, #44 ) ) ;
#96 = DIRECTION ( 'NONE',  ( 3.491481338843133355E-15, -1.224646799147353207E-16, 1.000000000000000000 ) ) ;
#97 = CC_DESIGN_PERSON_AND_ORGANIZATION_ASSIGNMENT ( #301, #12, ( #258 ) ) ;
#98 = EDGE_LOOP ( 'NONE', ( #6, #157, #269, #77 ) ) ;
#99 = DIRECTION ( 'NONE',  ( -3.491481338843133355E-15, 1.224646799147353207E-16, -1.000000000000000000 ) ) ;
#100 = CARTESIAN_POINT ( 'NONE',  ( 3.491481338843133355E-13, 4.799999999999990941, 100.0000000000000000 ) ) ;
#101 = ORIENTED_EDGE ( 'NONE', *, *, #62, .T. ) ;
#102 = ORIENTED_EDGE ( 'NONE', *, *, #151, .T. ) ;
#103 = CIRCLE ( 'NONE', #60, 6.000000000000002665 ) ;
#104 = PERSON_AND_ORGANIZATION_ROLE ( 'creator' ) ;
#105 = CARTESIAN_POINT ( 'NONE',  ( 2.565498867538171310E-30, 5.999999999999990230, 7.347880794884107903E-16 ) ) ;
#106 = FACE_OUTER_BOUND ( 'NONE', #249, .T. ) ;
#107 = DIRECTION ( 'NONE',  ( 0.000000000000000000, 1.000000000000000000, 0.000000000000000000 ) ) ;
#108 = ADVANCED_FACE ( 'NONE', ( #88 ), #257, .T. ) ;
#109 = DIRECTION ( 'NONE',  ( 4.275831445896958607E-31, 1.000000000000000000, 1.224646799147353207E-16 ) ) ;
#110 = DIRECTION ( 'NONE',  ( -2.468850131082271655E-15, 0.7071067811865455743, -0.7071067811865493491 ) ) ;
#111 = CIRCLE ( 'NONE', #43, 5.999999999999987566 ) ;
#112 = CARTESIAN_POINT ( 'NONE',  ( 1.326762908760390423E-13, 4.499279347985561328E-32, 38.00000000000000000 ) ) ;
#113 = CARTESIAN_POINT ( 'NONE',  ( 0.000000000000000000, 0.000000000000000000, 0.000000000000000000 ) ) ;
#114 = EDGE_CURVE ( 'NONE', #293, #121, #216, .T. ) ;
#115 = PERSON_AND_ORGANIZATION ( #262, #224 ) ;
#116 = CONICAL_SURFACE ( 'NONE', #36, 4.800000000000003375, 0.7853981633974453924 ) ;
#117 = DIRECTION ( 'NONE',  ( 0.000000000000000000, 1.000000000000000000, 0.000000000000000000 ) ) ;
#118 = EDGE_CURVE ( 'NONE', #204, #4, #305, .T. ) ;
#119 = PERSON_AND_ORGANIZATION_ROLE ( 'design_owner' ) ;
#120 = AXIS2_PLACEMENT_3D ( 'NONE', #244, #96, #214 ) ;
#121 = VERTEX_POINT ( 'NONE', #93 ) ;
#122 = ORIENTED_EDGE ( 'NONE', *, *, #221, .T. ) ;
#123 = APPROVAL_STATUS ( 'not_yet_approved' ) ;
#124 = APPROVAL ( #141, 'UNSPECIFIED' ) ;
#125 = VERTEX_POINT ( 'NONE', #19 ) ;
#126 = ORIENTED_EDGE ( 'NONE', *, *, #196, .F. ) ;
#127 = SHAPE_DEFINITION_REPRESENTATION ( #192, #145 ) ;
#128 = ORIENTED_EDGE ( 'NONE', *, *, #114, .F. ) ;
#129 = CARTESIAN_POINT ( 'NONE',  ( 0.000000000000000000, 0.000000000000000000, 0.000000000000000000 ) ) ;
#130 = CC_DESIGN_APPROVAL ( #193, ( #258 ) ) ;
#131 = ORIENTED_EDGE ( 'NONE', *, *, #196, .T. ) ;
#132 = APPROVAL_STATUS ( 'not_yet_approved' ) ;
#133 = LINE ( 'NONE', #183, #282 ) ;
#134 = PLANE ( 'NONE',  #69 ) ;
#135 = ADVANCED_FACE ( 'NONE', ( #139 ), #188, .T. ) ;
#136 = CIRCLE ( 'NONE', #309, 4.800000000000003375 ) ;
#137 = LOCAL_TIME ( 9, 9, 11.00000000000000000, #14 ) ;
#138 = CARTESIAN_POINT ( 'NONE',  ( 0.000000000000000000, 0.000000000000000000, 0.000000000000000000 ) ) ;
#139 = FACE_OUTER_BOUND ( 'NONE', #25, .T. ) ;
#140 = LINE ( 'NONE', #63, #74 ) ;
#141 = APPROVAL_STATUS ( 'not_yet_approved' ) ;
#142 = CC_DESIGN_DATE_AND_TIME_ASSIGNMENT ( #78, #278, ( #258 ) ) ;
#143 = DIRECTION ( 'NONE',  ( -3.491481338843133355E-15, 1.224646799147353207E-16, -1.000000000000000000 ) ) ;
#144 = EDGE_CURVE ( 'NONE', #28, #251, #140, .T. ) ;
#145 = ADVANCED_BREP_SHAPE_REPRESENTATION ( '376945', ( #209, #312, #26 ), #165 ) ;
#146 = LOCAL_TIME ( 9, 9, 11.00000000000000000, #203 ) ;
#147 = CARTESIAN_POINT ( 'NONE',  ( 1.326762908760390423E-13, 5.999999999999988454, 38.00000000000000000 ) ) ;
#148 = DIRECTION ( 'NONE',  ( 4.275831445896959482E-31, 1.000000000000000000, 1.224646799147353207E-16 ) ) ;
#149 = VECTOR ( 'NONE', #285, 1000.000000000000000 ) ;
#150 = CARTESIAN_POINT ( 'NONE',  ( 2.395521116563585557E-13, -6.000000000000015099, 98.79999999999999716 ) ) ;
#151 = EDGE_CURVE ( 'NONE', #57, #34, #291, .T. ) ;
#152 = CARTESIAN_POINT ( 'NONE',  ( 3.491481338843133355E-13, -1.224646799147353217E-14, 100.0000000000000000 ) ) ;
#153 = CARTESIAN_POINT ( 'NONE',  ( 7.347880794884082265E-16, -5.999999999999990230, -7.347880794884132555E-16 ) ) ;
#154 = DIRECTION ( 'NONE',  ( 4.275831445896958607E-31, 1.000000000000000000, 1.224646799147353207E-16 ) ) ;
#155 = CIRCLE ( 'NONE', #64, 4.800000000000003375 ) ;
#156 = DATE_AND_TIME ( #85, #146 ) ;
#157 = ORIENTED_EDGE ( 'NONE', *, *, #21, .T. ) ;
#158 = DIRECTION ( 'NONE',  ( -3.491481338843133355E-15, 1.224646799147353207E-16, -1.000000000000000000 ) ) ;
#159 = DATE_TIME_ROLE ( 'creation_date' ) ;
#160 = DIRECTION ( 'NONE',  ( -3.491481338843133355E-15, 1.224646799147353207E-16, -1.000000000000000000 ) ) ;
#161 = CARTESIAN_POINT ( 'NONE',  ( -1.068956167467712977E-30, 3.749393514879594722E-32, -3.061612146040857072E-16 ) ) ;
#162 = AXIS2_PLACEMENT_3D ( 'NONE', #298, #252, #175 ) ;
#163 = CARTESIAN_POINT ( 'NONE',  ( 7.347880794884092126E-16, -5.999999999999998224, -7.347880794884142416E-16 ) ) ;
#164 = DIRECTION ( 'NONE',  ( -3.491481338843133355E-15, 1.224646799147353207E-16, -1.000000000000000000 ) ) ;
#165 =( GEOMETRIC_REPRESENTATION_CONTEXT ( 3 ) GLOBAL_UNCERTAINTY_ASSIGNED_CONTEXT ( ( #39 ) ) GLOBAL_UNIT_ASSIGNED_CONTEXT ( ( #22, #189, #313 ) ) REPRESENTATION_CONTEXT ( 'NONE', 'WORKASPACE' ) );
#166 = APPROVAL_DATE_TIME ( #71, #124 ) ;
#167 = APPLICATION_CONTEXT ( 'configuration controlled 3d designs of mechanical parts and assemblies' ) ;
#168 = FACE_OUTER_BOUND ( 'NONE', #202, .T. ) ;
#169 = ORIENTED_EDGE ( 'NONE', *, *, #76, .F. ) ;
#170 = VECTOR ( 'NONE', #75, 1000.000000000000000 ) ;
#171 = CC_DESIGN_APPROVAL ( #17, ( #9 ) ) ;
#172 = DIRECTION ( 'NONE',  ( 0.000000000000000000, 1.000000000000000000, 0.000000000000000000 ) ) ;
#173 = SECURITY_CLASSIFICATION_LEVEL ( 'unclassified' ) ;
#174 = EDGE_CURVE ( 'NONE', #204, #28, #155, .T. ) ;
#175 = DIRECTION ( 'NONE',  ( 0.000000000000000000, 1.000000000000000000, 0.000000000000000000 ) ) ;
#176 = DATE_AND_TIME ( #275, #137 ) ;
#177 = EDGE_LOOP ( 'NONE', ( #195, #101, #122, #10 ) ) ;
#178 = PERSON_AND_ORGANIZATION ( #262, #224 ) ;
#179 = AXIS2_PLACEMENT_3D ( 'NONE', #234, #45, #233 ) ;
#180 = EDGE_LOOP ( 'NONE', ( #199, #31, #126, #84 ) ) ;
#181 = COORDINATED_UNIVERSAL_TIME_OFFSET ( 1, 0, .AHEAD. ) ;
#182 = CARTESIAN_POINT ( 'NONE',  ( 3.497359643479040945E-13, -4.800000000000014921, 100.0000000000000000 ) ) ;
#183 = CARTESIAN_POINT ( 'NONE',  ( 2.565498867538174463E-30, 5.999999999999998224, 7.347880794884117764E-16 ) ) ;
#184 = EDGE_CURVE ( 'NONE', #121, #293, #264, .T. ) ;
#185 = CYLINDRICAL_SURFACE ( 'NONE', #248, 5.999999999999998224 ) ;
#186 = AXIS2_PLACEMENT_3D ( 'NONE', #236, #212, #261 ) ;
#187 = DIRECTION ( 'NONE',  ( -3.491481338843133355E-15, 1.224646799147353207E-16, -1.000000000000000000 ) ) ;
#188 = CYLINDRICAL_SURFACE ( 'NONE', #179, 5.999999999999990230 ) ;
#189 =( NAMED_UNIT ( * ) PLANE_ANGLE_UNIT ( ) SI_UNIT ( $, .RADIAN. ) );
#190 = APPROVAL_PERSON_ORGANIZATION ( #178, #17, #227 ) ;
#191 = ADVANCED_FACE ( 'NONE', ( #16 ), #116, .T. ) ;
#192 = PRODUCT_DEFINITION_SHAPE ( 'NONE', 'NONE',  #288 ) ;
#193 = APPROVAL ( #123, 'UNSPECIFIED' ) ;
#194 = LINE ( 'NONE', #105, #170 ) ;
#195 = ORIENTED_EDGE ( 'NONE', *, *, #260, .F. ) ;
#196 = EDGE_CURVE ( 'NONE', #251, #4, #103, .T. ) ;
#197 = CIRCLE ( 'NONE', #162, 6.000000000000002665 ) ;
#198 = LOCAL_TIME ( 9, 9, 11.00000000000000000, #181 ) ;
#199 = ORIENTED_EDGE ( 'NONE', *, *, #27, .T. ) ;
#200 = DIRECTION ( 'NONE',  ( -3.491481338843133355E-15, 1.224646799147353207E-16, -1.000000000000000000 ) ) ;
#201 = PERSON_AND_ORGANIZATION ( #262, #224 ) ;
#202 = EDGE_LOOP ( 'NONE', ( #128, #7 ) ) ;
#203 = COORDINATED_UNIVERSAL_TIME_OFFSET ( 1, 0, .AHEAD. ) ;
#204 = VERTEX_POINT ( 'NONE', #46 ) ;
#205 = CIRCLE ( 'NONE', #310, 5.999999999999992895 ) ;
#206 = PLANE ( 'NONE',  #277 ) ;
#207 = CC_DESIGN_PERSON_AND_ORGANIZATION_ASSIGNMENT ( #295, #38, ( #9 ) ) ;
#208 = CARTESIAN_POINT ( 'NONE',  ( -2.137912334935425954E-30, 7.498787029759189444E-32, -6.123224292081714145E-16 ) ) ;
#209 = MANIFOLD_SOLID_BREP ( 'Corps-Déplacer/Copier1[1]', #95 ) ;
#210 = DIRECTION ( 'NONE',  ( 0.000000000000000000, 1.000000000000000000, 0.000000000000000000 ) ) ;
#211 = DIRECTION ( 'NONE',  ( 3.491481338843133355E-15, -1.224646799147353207E-16, 1.000000000000000000 ) ) ;
#212 = DIRECTION ( 'NONE',  ( -3.491481338843133355E-15, 1.224646799147353207E-16, -1.000000000000000000 ) ) ;
#213 = DIRECTION ( 'NONE',  ( 4.275831445896958607E-31, 1.000000000000000000, 1.224646799147353454E-16 ) ) ;
#214 = DIRECTION ( 'NONE',  ( -4.275831445896958607E-31, -1.000000000000000000, -1.224646799147353207E-16 ) ) ;
#215 = AXIS2_PLACEMENT_3D ( 'NONE', #29, #8, #154 ) ;
#216 = CIRCLE ( 'NONE', #23, 5.999999999999992895 ) ;
#217 = EDGE_LOOP ( 'NONE', ( #131, #219, #273, #80 ) ) ;
#218 = EDGE_LOOP ( 'NONE', ( #102, #32 ) ) ;
#219 = ORIENTED_EDGE ( 'NONE', *, *, #260, .T. ) ;
#220 = COORDINATED_UNIVERSAL_TIME_OFFSET ( 1, 0, .AHEAD. ) ;
#221 = EDGE_CURVE ( 'NONE', #251, #57, #133, .T. ) ;
#222 = ORIENTED_EDGE ( 'NONE', *, *, #118, .F. ) ;
#223 = CARTESIAN_POINT ( 'NONE',  ( 2.395521116563586567E-13, -5.999999999999997335, 38.00000000000000000 ) ) ;
#224 = ORGANIZATION ( 'UNSPECIFIED', 'UNSPECIFIED', '' ) ;
#225 = ORIENTED_EDGE ( 'NONE', *, *, #174, .T. ) ;
#226 = CARTESIAN_POINT ( 'NONE',  ( 1.326762908760390423E-13, 5.999999999999988454, 38.00000000000000000 ) ) ;
#227 = APPROVAL_ROLE ( '' ) ;
#228 = EDGE_LOOP ( 'NONE', ( #81, #297 ) ) ;
#229 = DIRECTION ( 'NONE',  ( -3.491481338843133355E-15, 1.224646799147353207E-16, -1.000000000000000000 ) ) ;
#230 = PRODUCT_RELATED_PRODUCT_CATEGORY ( 'detail', '', ( #246 ) ) ;
#231 = CLOSED_SHELL ( 'NONE', ( #54, #235, #135, #296 ) ) ;
#232 = AXIS2_PLACEMENT_3D ( 'NONE', #92, #284, #263 ) ;
#233 = DIRECTION ( 'NONE',  ( 4.275831445896959482E-31, 1.000000000000000000, 1.224646799147353207E-16 ) ) ;
#234 = CARTESIAN_POINT ( 'NONE',  ( 0.000000000000000000, 0.000000000000000000, 0.000000000000000000 ) ) ;
#235 = ADVANCED_FACE ( 'NONE', ( #106 ), #206, .F. ) ;
#236 = CARTESIAN_POINT ( 'NONE',  ( 0.000000000000000000, 0.000000000000000000, 0.000000000000000000 ) ) ;
#237 = FACE_OUTER_BOUND ( 'NONE', #218, .T. ) ;
#238 = AXIS2_PLACEMENT_3D ( 'NONE', #37, #42, #210 ) ;
#239 = COORDINATED_UNIVERSAL_TIME_OFFSET ( 1, 0, .AHEAD. ) ;
#240 = DIRECTION ( 'NONE',  ( -3.491481338843133355E-15, 1.224646799147353207E-16, -1.000000000000000000 ) ) ;
#241 = ADVANCED_FACE ( 'NONE', ( #279 ), #185, .T. ) ;
#242 = PLANE ( 'NONE',  #120 ) ;
#243 = APPROVAL_PERSON_ORGANIZATION ( #201, #193, #41 ) ;
#244 = CARTESIAN_POINT ( 'NONE',  ( 1.326762908760390423E-13, 4.499279347985561328E-32, 38.00000000000000000 ) ) ;
#245 = APPLICATION_CONTEXT ( 'configuration controlled 3d designs of mechanical parts and assemblies' ) ;
#246 = PRODUCT ( '376945', '376945', '', ( #266 ) ) ;
#247 = EDGE_LOOP ( 'NONE', ( #222, #225, #52, #254 ) ) ;
#248 = AXIS2_PLACEMENT_3D ( 'NONE', #138, #18, #109 ) ;
#249 = EDGE_LOOP ( 'NONE', ( #79, #250 ) ) ;
#250 = ORIENTED_EDGE ( 'NONE', *, *, #76, .T. ) ;
#251 = VERTEX_POINT ( 'NONE', #283 ) ;
#252 = DIRECTION ( 'NONE',  ( -3.491481338843133355E-15, 1.224646799147353207E-16, -1.000000000000000000 ) ) ;
#253 = PERSON_AND_ORGANIZATION_ROLE ( 'design_supplier' ) ;
#254 = ORIENTED_EDGE ( 'NONE', *, *, #62, .F. ) ;
#255 = CARTESIAN_POINT ( 'NONE',  ( 3.449583562777016007E-13, -1.209951037557585031E-14, 98.79999999999999716 ) ) ;
#256 = PERSON_AND_ORGANIZATION ( #262, #224 ) ;
#257 = CYLINDRICAL_SURFACE ( 'NONE', #186, 5.999999999999998224 ) ;
#258 = SECURITY_CLASSIFICATION ( '', '', #173 ) ;
#259 = DIRECTION ( 'NONE',  ( -4.275831445896958607E-31, -1.000000000000000000, -1.224646799147353207E-16 ) ) ;
#260 = EDGE_CURVE ( 'NONE', #4, #34, #65, .T. ) ;
#261 = DIRECTION ( 'NONE',  ( 4.275831445896958607E-31, 1.000000000000000000, 1.224646799147353207E-16 ) ) ;
#262 = PERSON ( 'UNSPECIFIED', 'UNSPECIFIED', 'UNSPECIFIED', ('UNSPECIFIED'), ('UNSPECIFIED'), ('UNSPECIFIED') ) ;
#263 = DIRECTION ( 'NONE',  ( 0.000000000000000000, 1.000000000000000000, 0.000000000000000000 ) ) ;
#264 = CIRCLE ( 'NONE', #306, 5.999999999999992895 ) ;
#265 = CC_DESIGN_PERSON_AND_ORGANIZATION_ASSIGNMENT ( #115, #104, ( #288 ) ) ;
#266 = MECHANICAL_CONTEXT ( 'NONE', #167, 'mechanical' ) ;
#267 = DIRECTION ( 'NONE',  ( 1.000000000000000000, 0.000000000000000000, 0.000000000000000000 ) ) ;
#268 = LOCAL_TIME ( 9, 9, 11.00000000000000000, #220 ) ;
#269 = ORIENTED_EDGE ( 'NONE', *, *, #280, .F. ) ;
#270 = VECTOR ( 'NONE', #200, 1000.000000000000000 ) ;
#271 = FACE_OUTER_BOUND ( 'NONE', #228, .T. ) ;
#272 = CC_DESIGN_PERSON_AND_ORGANIZATION_ASSIGNMENT ( #256, #253, ( #9 ) ) ;
#273 = ORIENTED_EDGE ( 'NONE', *, *, #151, .F. ) ;
#274 = LINE ( 'NONE', #153, #270 ) ;
#275 = CALENDAR_DATE ( 2023, 31, 3 ) ;
#276 = DIRECTION ( 'NONE',  ( -3.491481338843133355E-15, 1.224646799147353207E-16, -1.000000000000000000 ) ) ;
#277 = AXIS2_PLACEMENT_3D ( 'NONE', #161, #303, #259 ) ;
#278 = DATE_TIME_ROLE ( 'classification_date' ) ;
#279 = FACE_OUTER_BOUND ( 'NONE', #177, .T. ) ;
#280 = EDGE_CURVE ( 'NONE', #294, #125, #2, .T. ) ;
#281 = DIRECTION ( 'NONE',  ( 0.000000000000000000, 1.000000000000000000, 0.000000000000000000 ) ) ;
#282 = VECTOR ( 'NONE', #229, 1000.000000000000000 ) ;
#283 = CARTESIAN_POINT ( 'NONE',  ( 3.449583562777016007E-13, 5.999999999999990230, 98.79999999999999716 ) ) ;
#284 = DIRECTION ( 'NONE',  ( -3.491481338843133355E-15, 1.224646799147353207E-16, -1.000000000000000000 ) ) ;
#285 = DIRECTION ( 'NONE',  ( -2.382254525458723780E-15, -0.7071067811865453523, -0.7071067811865496822 ) ) ;
#286 = APPLICATION_PROTOCOL_DEFINITION ( 'international standard', 'config_control_design', 1994, #167 ) ;
#287 = LOCAL_TIME ( 9, 9, 11.00000000000000000, #239 ) ;
#288 = PRODUCT_DEFINITION ( 'UNKNOWN', '', #9, #83 ) ;
#289 = CARTESIAN_POINT ( 'NONE',  ( 1.326762908760390423E-13, -4.653657836759941941E-15, 38.00000000000000000 ) ) ;
#290 = PERSON_AND_ORGANIZATION ( #262, #224 ) ;
#291 = CIRCLE ( 'NONE', #232, 5.999999999999992895 ) ;
#292 = ORIENTED_EDGE ( 'NONE', *, *, #33, .T. ) ;
#293 = VERTEX_POINT ( 'NONE', #147 ) ;
#294 = VERTEX_POINT ( 'NONE', #24 ) ;
#295 = PERSON_AND_ORGANIZATION ( #262, #224 ) ;
#296 = ADVANCED_FACE ( 'NONE', ( #168 ), #242, .T. ) ;
#297 = ORIENTED_EDGE ( 'NONE', *, *, #174, .F. ) ;
#298 = CARTESIAN_POINT ( 'NONE',  ( 3.449583562777016007E-13, -1.209951037557585031E-14, 98.79999999999999716 ) ) ;
#299 = APPROVAL_DATE_TIME ( #82, #193 ) ;
#300 = CYLINDRICAL_SURFACE ( 'NONE', #86, 5.999999999999990230 ) ;
#301 = PERSON_AND_ORGANIZATION ( #262, #224 ) ;
#302 = ORIENTED_EDGE ( 'NONE', *, *, #21, .F. ) ;
#303 = DIRECTION ( 'NONE',  ( 3.491481338843133355E-15, -1.224646799147353207E-16, 1.000000000000000000 ) ) ;
#304 = DIRECTION ( 'NONE',  ( 4.275831445896958607E-31, 1.000000000000000000, 1.224646799147353454E-16 ) ) ;
#305 = LINE ( 'NONE', #182, #149 ) ;
#306 = AXIS2_PLACEMENT_3D ( 'NONE', #90, #164, #89 ) ;
#307 = DIRECTION ( 'NONE',  ( -3.491481338843133355E-15, 1.224646799147353207E-16, -1.000000000000000000 ) ) ;
#308 = CARTESIAN_POINT ( 'NONE',  ( 1.326762908760390423E-13, -4.653657836759941941E-15, 38.00000000000000000 ) ) ;
#309 = AXIS2_PLACEMENT_3D ( 'NONE', #152, #276, #172 ) ;
#310 = AXIS2_PLACEMENT_3D ( 'NONE', #289, #240, #117 ) ;
#311 = EDGE_CURVE ( 'NONE', #34, #57, #205, .T. ) ;
#312 = MANIFOLD_SOLID_BREP ( 'Corps-Déplacer/Copier1[2]', #231 ) ;
#313 =( NAMED_UNIT ( * ) SI_UNIT ( $, .STERADIAN. ) SOLID_ANGLE_UNIT ( ) );
ENDSEC;
END-ISO-10303-21;
