ISO-10303-21;
HEADER;
FILE_DESCRIPTION (( 'STEP AP203' ),
    '1' );
FILE_NAME ('376944.step',
    '2023-03-31T06:31:58',
    ( '' ),
    ( '' ),
    'SwSTEP 2.0',
    'SolidWorks 2022',
    '' );
FILE_SCHEMA (( 'CONFIG_CONTROL_DESIGN' ));
ENDSEC;

DATA;
#1 = LINE ( 'NONE', #176, #43 ) ;
#2 = CARTESIAN_POINT ( 'NONE',  ( 1.326762908760390423E-13, -4.653657836759941941E-15, 38.00000000000000000 ) ) ;
#3 = ORIENTED_EDGE ( 'NONE', *, *, #95, .F. ) ;
#4 = DESIGN_CONTEXT ( 'detailed design', #126, 'design' ) ;
#5 = CARTESIAN_POINT ( 'NONE',  ( 1.326762908760390423E-13, -4.653657836759941941E-15, 38.00000000000000000 ) ) ;
#6 = EDGE_CURVE ( 'NONE', #17, #149, #204, .T. ) ;
#7 = EDGE_LOOP ( 'NONE', ( #290, #313 ) ) ;
#8 = ADVANCED_BREP_SHAPE_REPRESENTATION ( '376944', ( #277, #269, #190 ), #144 ) ;
#9 = DIRECTION ( 'NONE',  ( 4.275831445896958607E-31, 1.000000000000000000, 1.224646799147353207E-16 ) ) ;
#10 = ORIENTED_EDGE ( 'NONE', *, *, #6, .T. ) ;
#11 = PRODUCT_RELATED_PRODUCT_CATEGORY ( 'detail', '', ( #192 ) ) ;
#12 = AXIS2_PLACEMENT_3D ( 'NONE', #146, #51, #198 ) ;
#13 = EDGE_CURVE ( 'NONE', #149, #17, #219, .T. ) ;
#14 = CONICAL_SURFACE ( 'NONE', #156, 4.800000000000003375, 0.7853981633974453924 ) ;
#15 = ADVANCED_FACE ( 'NONE', ( #257 ), #62, .F. ) ;
#16 = FACE_OUTER_BOUND ( 'NONE', #238, .T. ) ;
#17 = VERTEX_POINT ( 'NONE', #112 ) ;
#18 = DIRECTION ( 'NONE',  ( -3.491481338843133355E-15, 1.224646799147353207E-16, -1.000000000000000000 ) ) ;
#19 = APPROVAL_DATE_TIME ( #87, #293 ) ;
#20 = CARTESIAN_POINT ( 'NONE',  ( 0.000000000000000000, 0.000000000000000000, 0.000000000000000000 ) ) ;
#21 = PRODUCT_DEFINITION ( 'UNKNOWN', '', #73, #4 ) ;
#22 = ORIENTED_EDGE ( 'NONE', *, *, #298, .F. ) ;
#23 = DIRECTION ( 'NONE',  ( -3.491481338843133355E-15, 1.224646799147353207E-16, -1.000000000000000000 ) ) ;
#24 = CIRCLE ( 'NONE', #29, 6.000000000000002665 ) ;
#25 =( LENGTH_UNIT ( ) NAMED_UNIT ( * ) SI_UNIT ( .MILLI., .METRE. ) );
#26 = DIRECTION ( 'NONE',  ( 0.000000000000000000, 0.000000000000000000, 1.000000000000000000 ) ) ;
#27 = CARTESIAN_POINT ( 'NONE',  ( 3.491481338843133355E-13, 4.799999999999990941, 100.0000000000000000 ) ) ;
#28 = APPLICATION_PROTOCOL_DEFINITION ( 'international standard', 'config_control_design', 1994, #104 ) ;
#29 = AXIS2_PLACEMENT_3D ( 'NONE', #90, #161, #71 ) ;
#30 = CYLINDRICAL_SURFACE ( 'NONE', #120, 5.999999999999998224 ) ;
#31 = APPROVAL_PERSON_ORGANIZATION ( #44, #306, #223 ) ;
#32 = DIRECTION ( 'NONE',  ( -3.491481338843133355E-15, 1.224646799147353207E-16, -1.000000000000000000 ) ) ;
#33 = AXIS2_PLACEMENT_3D ( 'NONE', #300, #241, #249 ) ;
#34 = ORIENTED_EDGE ( 'NONE', *, *, #196, .F. ) ;
#35 = PLANE ( 'NONE',  #85 ) ;
#36 = ADVANCED_FACE ( 'NONE', ( #231 ), #35, .F. ) ;
#37 = DIRECTION ( 'NONE',  ( -2.382254525458723780E-15, -0.7071067811865453523, -0.7071067811865496822 ) ) ;
#38 = DIRECTION ( 'NONE',  ( -3.491481338843133355E-15, 1.224646799147353207E-16, -1.000000000000000000 ) ) ;
#39 = ORIENTED_EDGE ( 'NONE', *, *, #109, .T. ) ;
#40 = AXIS2_PLACEMENT_3D ( 'NONE', #91, #23, #200 ) ;
#41 = EDGE_CURVE ( 'NONE', #61, #260, #236, .T. ) ;
#42 = CC_DESIGN_SECURITY_CLASSIFICATION ( #308, ( #73 ) ) ;
#43 = VECTOR ( 'NONE', #37, 1000.000000000000000 ) ;
#44 = PERSON_AND_ORGANIZATION ( #214, #203 ) ;
#45 = DIRECTION ( 'NONE',  ( -3.491481338843133355E-15, 1.224646799147353207E-16, -1.000000000000000000 ) ) ;
#46 = PERSON_AND_ORGANIZATION ( #214, #203 ) ;
#47 = CARTESIAN_POINT ( 'NONE',  ( 3.491481338843133355E-13, -1.224646799147353217E-14, 100.0000000000000000 ) ) ;
#48 = CC_DESIGN_DATE_AND_TIME_ASSIGNMENT ( #251, #245, ( #21 ) ) ;
#49 = DIRECTION ( 'NONE',  ( 3.491481338843133355E-15, -1.224646799147353207E-16, 1.000000000000000000 ) ) ;
#50 = ORIENTED_EDGE ( 'NONE', *, *, #195, .T. ) ;
#51 = DIRECTION ( 'NONE',  ( -3.491481338843133355E-15, 1.224646799147353207E-16, -1.000000000000000000 ) ) ;
#52 =( NAMED_UNIT ( * ) SI_UNIT ( $, .STERADIAN. ) SOLID_ANGLE_UNIT ( ) );
#53 = DIRECTION ( 'NONE',  ( -4.275831445896958607E-31, -1.000000000000000000, -1.224646799147353207E-16 ) ) ;
#54 = ORIENTED_EDGE ( 'NONE', *, *, #117, .F. ) ;
#55 = DIRECTION ( 'NONE',  ( -3.491481338843133355E-15, 1.224646799147353207E-16, -1.000000000000000000 ) ) ;
#56 = APPROVAL_ROLE ( '' ) ;
#57 = DIRECTION ( 'NONE',  ( 0.000000000000000000, 1.000000000000000000, 0.000000000000000000 ) ) ;
#58 = LOCAL_TIME ( 8, 31, 58.00000000000000000, #217 ) ;
#59 = DIRECTION ( 'NONE',  ( -2.468850131082271655E-15, 0.7071067811865455743, -0.7071067811865493491 ) ) ;
#60 = CIRCLE ( 'NONE', #276, 5.999999999999987566 ) ;
#61 = VERTEX_POINT ( 'NONE', #27 ) ;
#62 = PLANE ( 'NONE',  #172 ) ;
#63 = APPROVAL_DATE_TIME ( #157, #250 ) ;
#64 = CARTESIAN_POINT ( 'NONE',  ( 3.491481338843133355E-13, -1.224646799147353217E-14, 100.0000000000000000 ) ) ;
#65 = ORIENTED_EDGE ( 'NONE', *, *, #117, .T. ) ;
#66 = CALENDAR_DATE ( 2023, 31, 3 ) ;
#67 = APPROVAL_STATUS ( 'not_yet_approved' ) ;
#68 = PLANE ( 'NONE',  #216 ) ;
#69 = DIRECTION ( 'NONE',  ( 0.000000000000000000, 1.000000000000000000, 0.000000000000000000 ) ) ;
#70 = AXIS2_PLACEMENT_3D ( 'NONE', #271, #168, #9 ) ;
#71 = DIRECTION ( 'NONE',  ( 0.000000000000000000, 1.000000000000000000, 0.000000000000000000 ) ) ;
#72 = ORIENTED_EDGE ( 'NONE', *, *, #280, .T. ) ;
#73 = PRODUCT_DEFINITION_FORMATION_WITH_SPECIFIED_SOURCE ( 'ANY', '', #192, .NOT_KNOWN. ) ;
#74 = CIRCLE ( 'NONE', #309, 6.000000000000002665 ) ;
#75 = CARTESIAN_POINT ( 'NONE',  ( 0.000000000000000000, 0.000000000000000000, 0.000000000000000000 ) ) ;
#76 = ORIENTED_EDGE ( 'NONE', *, *, #132, .T. ) ;
#77 = DIRECTION ( 'NONE',  ( -3.491481338843133355E-15, 1.224646799147353207E-16, -1.000000000000000000 ) ) ;
#78 = EDGE_CURVE ( 'NONE', #256, #260, #74, .T. ) ;
#79 = ORIENTED_EDGE ( 'NONE', *, *, #13, .F. ) ;
#80 = DIRECTION ( 'NONE',  ( 3.491481338843133355E-15, -1.224646799147353207E-16, 1.000000000000000000 ) ) ;
#81 = AXIS2_PLACEMENT_3D ( 'NONE', #284, #158, #136 ) ;
#82 = CARTESIAN_POINT ( 'NONE',  ( 3.449583562777016007E-13, 5.999999999999990230, 98.79999999999999716 ) ) ;
#83 = ORIENTED_EDGE ( 'NONE', *, *, #142, .T. ) ;
#84 = ORIENTED_EDGE ( 'NONE', *, *, #298, .T. ) ;
#85 = AXIS2_PLACEMENT_3D ( 'NONE', #258, #80, #53 ) ;
#86 = PERSON_AND_ORGANIZATION_ROLE ( 'classification_officer' ) ;
#87 = DATE_AND_TIME ( #220, #58 ) ;
#88 = CARTESIAN_POINT ( 'NONE',  ( 1.326762908760390423E-13, 5.999999999999988454, 38.00000000000000000 ) ) ;
#89 = CARTESIAN_POINT ( 'NONE',  ( 1.326762908760390423E-13, -4.653657836759941941E-15, 38.00000000000000000 ) ) ;
#90 = CARTESIAN_POINT ( 'NONE',  ( 3.449583562777016007E-13, -1.209951037557585031E-14, 98.79999999999999716 ) ) ;
#91 = CARTESIAN_POINT ( 'NONE',  ( 0.000000000000000000, 0.000000000000000000, 0.000000000000000000 ) ) ;
#92 = AXIS2_PLACEMENT_3D ( 'NONE', #2, #77, #263 ) ;
#93 = EDGE_LOOP ( 'NONE', ( #83, #76, #294, #184 ) ) ;
#94 = CC_DESIGN_DATE_AND_TIME_ASSIGNMENT ( #193, #122, ( #308 ) ) ;
#95 = EDGE_CURVE ( 'NONE', #260, #153, #106, .T. ) ;
#96 = MECHANICAL_CONTEXT ( 'NONE', #104, 'mechanical' ) ;
#97 = DIRECTION ( 'NONE',  ( 0.000000000000000000, 1.000000000000000000, 0.000000000000000000 ) ) ;
#98 = ORIENTED_EDGE ( 'NONE', *, *, #202, .T. ) ;
#99 = CYLINDRICAL_SURFACE ( 'NONE', #116, 5.999999999999998224 ) ;
#100 = CIRCLE ( 'NONE', #33, 5.999999999999992895 ) ;
#101 = LINE ( 'NONE', #229, #148 ) ;
#102 = FACE_OUTER_BOUND ( 'NONE', #186, .T. ) ;
#103 = ADVANCED_FACE ( 'NONE', ( #232 ), #30, .T. ) ;
#104 = APPLICATION_CONTEXT ( 'configuration controlled 3d designs of mechanical parts and assemblies' ) ;
#105 = DIRECTION ( 'NONE',  ( 4.275831445896958607E-31, 1.000000000000000000, 1.224646799147353207E-16 ) ) ;
#106 = LINE ( 'NONE', #312, #111 ) ;
#107 = EDGE_LOOP ( 'NONE', ( #225, #84, #191, #159 ) ) ;
#108 = CARTESIAN_POINT ( 'NONE',  ( 3.449583562777016007E-13, -1.209951037557585031E-14, 98.79999999999999716 ) ) ;
#109 = EDGE_CURVE ( 'NONE', #256, #215, #281, .T. ) ;
#110 = APPROVAL_STATUS ( 'not_yet_approved' ) ;
#111 = VECTOR ( 'NONE', #114, 1000.000000000000000 ) ;
#112 = CARTESIAN_POINT ( 'NONE',  ( 6.707293351750788153E-14, -5.999999999999997335, 38.00000000000000000 ) ) ;
#113 = EDGE_LOOP ( 'NONE', ( #302, #287, #265, #34 ) ) ;
#114 = DIRECTION ( 'NONE',  ( -3.491481338843133355E-15, 1.224646799147353207E-16, -1.000000000000000000 ) ) ;
#115 = CARTESIAN_POINT ( 'NONE',  ( 0.000000000000000000, 0.000000000000000000, 0.000000000000000000 ) ) ;
#116 = AXIS2_PLACEMENT_3D ( 'NONE', #20, #292, #105 ) ;
#117 = EDGE_CURVE ( 'NONE', #282, #243, #60, .T. ) ;
#118 = APPROVAL_STATUS ( 'not_yet_approved' ) ;
#119 = LOCAL_TIME ( 8, 31, 58.00000000000000000, #187 ) ;
#120 = AXIS2_PLACEMENT_3D ( 'NONE', #207, #259, #175 ) ;
#121 = FACE_OUTER_BOUND ( 'NONE', #163, .T. ) ;
#122 = DATE_TIME_ROLE ( 'classification_date' ) ;
#123 = DIRECTION ( 'NONE',  ( -3.491481338843133355E-15, 1.224646799147353207E-16, -1.000000000000000000 ) ) ;
#124 = CLOSED_SHELL ( 'NONE', ( #199, #15, #180, #222 ) ) ;
#125 = FACE_OUTER_BOUND ( 'NONE', #113, .T. ) ;
#126 = APPLICATION_CONTEXT ( 'configuration controlled 3d designs of mechanical parts and assemblies' ) ;
#127 = DIRECTION ( 'NONE',  ( 0.000000000000000000, 1.000000000000000000, 0.000000000000000000 ) ) ;
#128 = ORIENTED_EDGE ( 'NONE', *, *, #170, .T. ) ;
#129 = ORIENTED_EDGE ( 'NONE', *, *, #6, .F. ) ;
#130 = DIRECTION ( 'NONE',  ( -3.491481338843133355E-15, 1.224646799147353207E-16, -1.000000000000000000 ) ) ;
#131 = AXIS2_PLACEMENT_3D ( 'NONE', #89, #123, #264 ) ;
#132 = EDGE_CURVE ( 'NONE', #173, #256, #1, .T. ) ;
#133 = CARTESIAN_POINT ( 'NONE',  ( 7.347880794884092126E-16, -5.999999999999998224, -7.347880794884142416E-16 ) ) ;
#134 = CC_DESIGN_APPROVAL ( #250, ( #21 ) ) ;
#135 = AXIS2_PLACEMENT_3D ( 'NONE', #64, #183, #69 ) ;
#136 = DIRECTION ( 'NONE',  ( 0.000000000000000000, 1.000000000000000000, 0.000000000000000000 ) ) ;
#137 = ORIENTED_EDGE ( 'NONE', *, *, #139, .T. ) ;
#138 = CARTESIAN_POINT ( 'NONE',  ( -2.137912334935425954E-30, 7.498787029759189444E-32, -6.123224292081714145E-16 ) ) ;
#139 = EDGE_CURVE ( 'NONE', #173, #61, #160, .T. ) ;
#140 = FACE_OUTER_BOUND ( 'NONE', #107, .T. ) ;
#141 = PERSON_AND_ORGANIZATION_ROLE ( 'creator' ) ;
#142 = EDGE_CURVE ( 'NONE', #61, #173, #154, .T. ) ;
#143 = APPROVAL_ROLE ( '' ) ;
#144 =( GEOMETRIC_REPRESENTATION_CONTEXT ( 3 ) GLOBAL_UNCERTAINTY_ASSIGNED_CONTEXT ( ( #237 ) ) GLOBAL_UNIT_ASSIGNED_CONTEXT ( ( #25, #307, #52 ) ) REPRESENTATION_CONTEXT ( 'NONE', 'WORKASPACE' ) );
#145 = CARTESIAN_POINT ( 'NONE',  ( 3.491481338843133355E-13, -1.224646799147353217E-14, 100.0000000000000000 ) ) ;
#146 = CARTESIAN_POINT ( 'NONE',  ( -2.137912334935425954E-30, 7.498787029759189444E-32, -6.123224292081714145E-16 ) ) ;
#147 = DIRECTION ( 'NONE',  ( -4.275831445896958607E-31, -1.000000000000000000, -1.224646799147353207E-16 ) ) ;
#148 = VECTOR ( 'NONE', #38, 1000.000000000000000 ) ;
#149 = VERTEX_POINT ( 'NONE', #221 ) ;
#150 = CC_DESIGN_PERSON_AND_ORGANIZATION_ASSIGNMENT ( #46, #86, ( #308 ) ) ;
#151 = CARTESIAN_POINT ( 'NONE',  ( 3.477145543525469774E-13, -4.800000000000014921, 100.0000000000000000 ) ) ;
#152 = LOCAL_TIME ( 8, 31, 58.00000000000000000, #164 ) ;
#153 = VERTEX_POINT ( 'NONE', #88 ) ;
#154 = CIRCLE ( 'NONE', #135, 4.800000000000003375 ) ;
#155 = CARTESIAN_POINT ( 'NONE',  ( 3.491481338843133355E-13, 4.799999999999990941, 100.0000000000000000 ) ) ;
#156 = AXIS2_PLACEMENT_3D ( 'NONE', #47, #304, #224 ) ;
#157 = DATE_AND_TIME ( #235, #171 ) ;
#158 = DIRECTION ( 'NONE',  ( -3.491481338843133355E-15, 1.224646799147353207E-16, -1.000000000000000000 ) ) ;
#159 = ORIENTED_EDGE ( 'NONE', *, *, #195, .F. ) ;
#160 = CIRCLE ( 'NONE', #81, 4.800000000000003375 ) ;
#161 = DIRECTION ( 'NONE',  ( -3.491481338843133355E-15, 1.224646799147353207E-16, -1.000000000000000000 ) ) ;
#162 = PERSON_AND_ORGANIZATION_ROLE ( 'creator' ) ;
#163 = EDGE_LOOP ( 'NONE', ( #188, #137, #230, #239 ) ) ;
#164 = COORDINATED_UNIVERSAL_TIME_OFFSET ( 1, 0, .AHEAD. ) ;
#165 = PERSON_AND_ORGANIZATION ( #214, #203 ) ;
#166 = DIRECTION ( 'NONE',  ( 4.275831445896959482E-31, 1.000000000000000000, 1.224646799147353207E-16 ) ) ;
#167 = SECURITY_CLASSIFICATION_LEVEL ( 'unclassified' ) ;
#168 = DIRECTION ( 'NONE',  ( -3.491481338843133355E-15, 1.224646799147353207E-16, -1.000000000000000000 ) ) ;
#169 = CARTESIAN_POINT ( 'NONE',  ( 6.707293351750790677E-14, -5.999999999999987566, -1.347110508696816201E-15 ) ) ;
#170 = EDGE_CURVE ( 'NONE', #153, #215, #100, .T. ) ;
#171 = LOCAL_TIME ( 8, 31, 58.00000000000000000, #283 ) ;
#172 = AXIS2_PLACEMENT_3D ( 'NONE', #279, #286, #177 ) ;
#173 = VERTEX_POINT ( 'NONE', #151 ) ;
#174 = EDGE_LOOP ( 'NONE', ( #72, #39, #242, #3 ) ) ;
#175 = DIRECTION ( 'NONE',  ( 4.275831445896958607E-31, 1.000000000000000000, 1.224646799147353207E-16 ) ) ;
#176 = CARTESIAN_POINT ( 'NONE',  ( 3.497359643479040945E-13, -4.800000000000014921, 100.0000000000000000 ) ) ;
#177 = DIRECTION ( 'NONE',  ( -4.275831445896958607E-31, -1.000000000000000000, -1.224646799147353207E-16 ) ) ;
#178 = ADVANCED_FACE ( 'NONE', ( #121 ), #14, .T. ) ;
#179 = DIRECTION ( 'NONE',  ( 1.000000000000000000, 0.000000000000000000, 0.000000000000000000 ) ) ;
#180 = ADVANCED_FACE ( 'NONE', ( #16 ), #301, .T. ) ;
#181 = PERSON_AND_ORGANIZATION ( #214, #203 ) ;
#182 = CC_DESIGN_PERSON_AND_ORGANIZATION_ASSIGNMENT ( #240, #141, ( #21 ) ) ;
#183 = DIRECTION ( 'NONE',  ( -3.491481338843133355E-15, 1.224646799147353207E-16, -1.000000000000000000 ) ) ;
#184 = ORIENTED_EDGE ( 'NONE', *, *, #41, .F. ) ;
#185 = CIRCLE ( 'NONE', #12, 5.999999999999987566 ) ;
#186 = EDGE_LOOP ( 'NONE', ( #79, #129 ) ) ;
#187 = COORDINATED_UNIVERSAL_TIME_OFFSET ( 1, 0, .AHEAD. ) ;
#188 = ORIENTED_EDGE ( 'NONE', *, *, #132, .F. ) ;
#189 = PERSON_AND_ORGANIZATION ( #214, #203 ) ;
#190 = AXIS2_PLACEMENT_3D ( 'NONE', #75, #26, #179 ) ;
#191 = ORIENTED_EDGE ( 'NONE', *, *, #202, .F. ) ;
#192 = PRODUCT ( '376944', '376944', '', ( #96 ) ) ;
#193 = DATE_AND_TIME ( #270, #152 ) ;
#194 = CYLINDRICAL_SURFACE ( 'NONE', #201, 5.999999999999990230 ) ;
#195 = EDGE_CURVE ( 'NONE', #149, #243, #101, .T. ) ;
#196 = EDGE_CURVE ( 'NONE', #215, #153, #305, .T. ) ;
#197 = COORDINATED_UNIVERSAL_TIME_OFFSET ( 1, 0, .AHEAD. ) ;
#198 = DIRECTION ( 'NONE',  ( 4.275831445896958607E-31, 1.000000000000000000, 1.224646799147353454E-16 ) ) ;
#199 = ADVANCED_FACE ( 'NONE', ( #140 ), #194, .T. ) ;
#200 = DIRECTION ( 'NONE',  ( 4.275831445896959482E-31, 1.000000000000000000, 1.224646799147353207E-16 ) ) ;
#201 = AXIS2_PLACEMENT_3D ( 'NONE', #115, #18, #166 ) ;
#202 = EDGE_CURVE ( 'NONE', #243, #282, #185, .T. ) ;
#203 = ORGANIZATION ( 'UNSPECIFIED', 'UNSPECIFIED', '' ) ;
#204 = CIRCLE ( 'NONE', #92, 5.999999999999992895 ) ;
#205 = ADVANCED_FACE ( 'NONE', ( #246 ), #213, .F. ) ;
#206 = CC_DESIGN_PERSON_AND_ORGANIZATION_ASSIGNMENT ( #165, #226, ( #73 ) ) ;
#207 = CARTESIAN_POINT ( 'NONE',  ( 0.000000000000000000, 0.000000000000000000, 0.000000000000000000 ) ) ;
#208 = EDGE_LOOP ( 'NONE', ( #128, #278 ) ) ;
#209 = AXIS2_PLACEMENT_3D ( 'NONE', #5, #130, #97 ) ;
#210 = CALENDAR_DATE ( 2023, 31, 3 ) ;
#211 = DIRECTION ( 'NONE',  ( 4.275831445896958607E-31, 1.000000000000000000, 1.224646799147353454E-16 ) ) ;
#212 = EDGE_LOOP ( 'NONE', ( #98, #65 ) ) ;
#213 = PLANE ( 'NONE',  #70 ) ;
#214 = PERSON ( 'UNSPECIFIED', 'UNSPECIFIED', 'UNSPECIFIED', ('UNSPECIFIED'), ('UNSPECIFIED'), ('UNSPECIFIED') ) ;
#215 = VERTEX_POINT ( 'NONE', #227 ) ;
#216 = AXIS2_PLACEMENT_3D ( 'NONE', #273, #49, #147 ) ;
#217 = COORDINATED_UNIVERSAL_TIME_OFFSET ( 1, 0, .AHEAD. ) ;
#218 = CC_DESIGN_APPROVAL ( #306, ( #308 ) ) ;
#219 = CIRCLE ( 'NONE', #209, 5.999999999999992895 ) ;
#220 = CALENDAR_DATE ( 2023, 31, 3 ) ;
#221 = CARTESIAN_POINT ( 'NONE',  ( 1.326762908760390423E-13, 5.999999999999988454, 38.00000000000000000 ) ) ;
#222 = ADVANCED_FACE ( 'NONE', ( #102 ), #68, .T. ) ;
#223 = APPROVAL_ROLE ( '' ) ;
#224 = DIRECTION ( 'NONE',  ( 0.000000000000000000, 1.000000000000000000, 0.000000000000000000 ) ) ;
#225 = ORIENTED_EDGE ( 'NONE', *, *, #13, .T. ) ;
#226 = PERSON_AND_ORGANIZATION_ROLE ( 'design_supplier' ) ;
#227 = CARTESIAN_POINT ( 'NONE',  ( 2.395521116563586567E-13, -5.999999999999997335, 38.00000000000000000 ) ) ;
#228 = PRODUCT_DEFINITION_SHAPE ( 'NONE', 'NONE',  #21 ) ;
#229 = CARTESIAN_POINT ( 'NONE',  ( 2.565498867538171310E-30, 5.999999999999990230, 7.347880794884107903E-16 ) ) ;
#230 = ORIENTED_EDGE ( 'NONE', *, *, #41, .T. ) ;
#231 = FACE_OUTER_BOUND ( 'NONE', #208, .T. ) ;
#232 = FACE_OUTER_BOUND ( 'NONE', #174, .T. ) ;
#233 = VECTOR ( 'NONE', #311, 1000.000000000000000 ) ;
#234 = DIRECTION ( 'NONE',  ( -3.491481338843133355E-15, 1.224646799147353207E-16, -1.000000000000000000 ) ) ;
#235 = CALENDAR_DATE ( 2023, 31, 3 ) ;
#236 = LINE ( 'NONE', #155, #254 ) ;
#237 = UNCERTAINTY_MEASURE_WITH_UNIT (LENGTH_MEASURE( 1.000000000000000082E-05 ), #25, 'distance_accuracy_value', 'NONE');
#238 = EDGE_LOOP ( 'NONE', ( #22, #10, #50, #54 ) ) ;
#239 = ORIENTED_EDGE ( 'NONE', *, *, #78, .F. ) ;
#240 = PERSON_AND_ORGANIZATION ( #214, #203 ) ;
#241 = DIRECTION ( 'NONE',  ( -3.491481338843133355E-15, 1.224646799147353207E-16, -1.000000000000000000 ) ) ;
#242 = ORIENTED_EDGE ( 'NONE', *, *, #170, .F. ) ;
#243 = VERTEX_POINT ( 'NONE', #252 ) ;
#244 = AXIS2_PLACEMENT_3D ( 'NONE', #145, #45, #127 ) ;
#245 = DATE_TIME_ROLE ( 'creation_date' ) ;
#246 = FACE_OUTER_BOUND ( 'NONE', #7, .T. ) ;
#247 = APPROVAL_PERSON_ORGANIZATION ( #289, #250, #56 ) ;
#248 = APPROVAL_DATE_TIME ( #272, #306 ) ;
#249 = DIRECTION ( 'NONE',  ( 0.000000000000000000, 1.000000000000000000, 0.000000000000000000 ) ) ;
#250 = APPROVAL ( #110, 'UNSPECIFIED' ) ;
#251 = DATE_AND_TIME ( #210, #119 ) ;
#252 = CARTESIAN_POINT ( 'NONE',  ( 4.275865326027437796E-31, 5.999999999999987566, 1.224656502802390307E-16 ) ) ;
#253 = LINE ( 'NONE', #268, #233 ) ;
#254 = VECTOR ( 'NONE', #59, 1000.000000000000114 ) ;
#255 = ADVANCED_FACE ( 'NONE', ( #125 ), #99, .T. ) ;
#256 = VERTEX_POINT ( 'NONE', #303 ) ;
#257 = FACE_OUTER_BOUND ( 'NONE', #212, .T. ) ;
#258 = CARTESIAN_POINT ( 'NONE',  ( 1.326762908760390423E-13, 4.499279347985561328E-32, 38.00000000000000000 ) ) ;
#259 = DIRECTION ( 'NONE',  ( -3.491481338843133355E-15, 1.224646799147353207E-16, -1.000000000000000000 ) ) ;
#260 = VERTEX_POINT ( 'NONE', #82 ) ;
#261 = LOCAL_TIME ( 8, 31, 58.00000000000000000, #197 ) ;
#262 = CC_DESIGN_PERSON_AND_ORGANIZATION_ASSIGNMENT ( #181, #266, ( #192 ) ) ;
#263 = DIRECTION ( 'NONE',  ( 0.000000000000000000, 1.000000000000000000, 0.000000000000000000 ) ) ;
#264 = DIRECTION ( 'NONE',  ( 0.000000000000000000, 1.000000000000000000, 0.000000000000000000 ) ) ;
#265 = ORIENTED_EDGE ( 'NONE', *, *, #95, .T. ) ;
#266 = PERSON_AND_ORGANIZATION_ROLE ( 'design_owner' ) ;
#267 = CC_DESIGN_PERSON_AND_ORGANIZATION_ASSIGNMENT ( #297, #162, ( #73 ) ) ;
#268 = CARTESIAN_POINT ( 'NONE',  ( 7.347880794884082265E-16, -5.999999999999990230, -7.347880794884132555E-16 ) ) ;
#269 = MANIFOLD_SOLID_BREP ( 'Corps-Déplacer/Copier1[2]', #124 ) ;
#270 = CALENDAR_DATE ( 2023, 31, 3 ) ;
#271 = CARTESIAN_POINT ( 'NONE',  ( 3.491481338843133355E-13, 3.599423478388442932E-32, 100.0000000000000000 ) ) ;
#272 = DATE_AND_TIME ( #66, #261 ) ;
#273 = CARTESIAN_POINT ( 'NONE',  ( 1.326762908760390423E-13, 4.499279347985561328E-32, 38.00000000000000000 ) ) ;
#274 = FACE_OUTER_BOUND ( 'NONE', #93, .T. ) ;
#275 = CONICAL_SURFACE ( 'NONE', #244, 4.800000000000003375, 0.7853981633974453924 ) ;
#276 = AXIS2_PLACEMENT_3D ( 'NONE', #138, #32, #211 ) ;
#277 = MANIFOLD_SOLID_BREP ( 'Corps-Déplacer/Copier1[1]', #310 ) ;
#278 = ORIENTED_EDGE ( 'NONE', *, *, #196, .T. ) ;
#279 = CARTESIAN_POINT ( 'NONE',  ( -1.068956167467712977E-30, 3.749393514879594722E-32, -3.061612146040857072E-16 ) ) ;
#280 = EDGE_CURVE ( 'NONE', #260, #256, #24, .T. ) ;
#281 = LINE ( 'NONE', #133, #296 ) ;
#282 = VERTEX_POINT ( 'NONE', #169 ) ;
#283 = COORDINATED_UNIVERSAL_TIME_OFFSET ( 1, 0, .AHEAD. ) ;
#284 = CARTESIAN_POINT ( 'NONE',  ( 3.491481338843133355E-13, -1.224646799147353217E-14, 100.0000000000000000 ) ) ;
#285 = ADVANCED_FACE ( 'NONE', ( #274 ), #275, .T. ) ;
#286 = DIRECTION ( 'NONE',  ( 3.491481338843133355E-15, -1.224646799147353207E-16, 1.000000000000000000 ) ) ;
#287 = ORIENTED_EDGE ( 'NONE', *, *, #78, .T. ) ;
#288 = CC_DESIGN_APPROVAL ( #293, ( #73 ) ) ;
#289 = PERSON_AND_ORGANIZATION ( #214, #203 ) ;
#290 = ORIENTED_EDGE ( 'NONE', *, *, #142, .F. ) ;
#291 = APPLICATION_PROTOCOL_DEFINITION ( 'international standard', 'config_control_design', 1994, #126 ) ;
#292 = DIRECTION ( 'NONE',  ( -3.491481338843133355E-15, 1.224646799147353207E-16, -1.000000000000000000 ) ) ;
#293 = APPROVAL ( #67, 'UNSPECIFIED' ) ;
#294 = ORIENTED_EDGE ( 'NONE', *, *, #280, .F. ) ;
#295 = APPROVAL_PERSON_ORGANIZATION ( #189, #293, #143 ) ;
#296 = VECTOR ( 'NONE', #234, 1000.000000000000000 ) ;
#297 = PERSON_AND_ORGANIZATION ( #214, #203 ) ;
#298 = EDGE_CURVE ( 'NONE', #17, #282, #253, .T. ) ;
#299 = SHAPE_DEFINITION_REPRESENTATION ( #228, #8 ) ;
#300 = CARTESIAN_POINT ( 'NONE',  ( 1.326762908760390423E-13, -4.653657836759941941E-15, 38.00000000000000000 ) ) ;
#301 = CYLINDRICAL_SURFACE ( 'NONE', #40, 5.999999999999990230 ) ;
#302 = ORIENTED_EDGE ( 'NONE', *, *, #109, .F. ) ;
#303 = CARTESIAN_POINT ( 'NONE',  ( 2.395521116563585557E-13, -6.000000000000015099, 98.79999999999999716 ) ) ;
#304 = DIRECTION ( 'NONE',  ( -3.491481338843133355E-15, 1.224646799147353207E-16, -1.000000000000000000 ) ) ;
#305 = CIRCLE ( 'NONE', #131, 5.999999999999992895 ) ;
#306 = APPROVAL ( #118, 'UNSPECIFIED' ) ;
#307 =( NAMED_UNIT ( * ) PLANE_ANGLE_UNIT ( ) SI_UNIT ( $, .RADIAN. ) );
#308 = SECURITY_CLASSIFICATION ( '', '', #167 ) ;
#309 = AXIS2_PLACEMENT_3D ( 'NONE', #108, #55, #57 ) ;
#310 = CLOSED_SHELL ( 'NONE', ( #285, #103, #36, #255, #178, #205 ) ) ;
#311 = DIRECTION ( 'NONE',  ( -3.491481338843133355E-15, 1.224646799147353207E-16, -1.000000000000000000 ) ) ;
#312 = CARTESIAN_POINT ( 'NONE',  ( 2.565498867538174463E-30, 5.999999999999998224, 7.347880794884117764E-16 ) ) ;
#313 = ORIENTED_EDGE ( 'NONE', *, *, #139, .F. ) ;
ENDSEC;
END-ISO-10303-21;
