ISO-10303-21;
HEADER;
FILE_DESCRIPTION (( 'STEP AP203' ),
    '1' );
FILE_NAME ('376938.step',
    '2021-12-08T08:40:46',
    ( '' ),
    ( '' ),
    'SwSTEP 2.0',
    'SolidWorks 2019',
    '' );
FILE_SCHEMA (( 'CONFIG_CONTROL_DESIGN' ));
ENDSEC;

DATA;
#1 = CARTESIAN_POINT ( 'NONE',  ( 2.073939915272820834E-13, -7.274401986935278213E-15, 59.39999999999999147 ) ) ;
#2 = ORIENTED_EDGE ( 'NONE', *, *, #172, .T. ) ;
#3 = EDGE_LOOP ( 'NONE', ( #102 ) ) ;
#4 = CIRCLE ( 'NONE', #136, 2.999999999999993783 ) ;
#5 = VERTEX_POINT ( 'NONE', #200 ) ;
#6 = FACE_OUTER_BOUND ( 'NONE', #192, .T. ) ;
#7 = PERSON_AND_ORGANIZATION_ROLE ( 'design_owner' ) ;
#8 = VERTEX_POINT ( 'NONE', #170 ) ;
#9 = APPLICATION_PROTOCOL_DEFINITION ( 'international standard', 'config_control_design', 1994, #75 ) ;
#10 = APPROVAL ( #81, 'UNSPECIFIED' ) ;
#11 = PLANE ( 'NONE',  #90 ) ;
#12 = AXIS2_PLACEMENT_3D ( 'NONE', #84, #180, #37 ) ;
#13 = COORDINATED_UNIVERSAL_TIME_OFFSET ( 1, 0, .AHEAD. ) ;
#14 = PERSON_AND_ORGANIZATION_ROLE ( 'creator' ) ;
#15 = CYLINDRICAL_SURFACE ( 'NONE', #48, 2.999999999999993339 ) ;
#16 = AXIS2_PLACEMENT_3D ( 'NONE', #106, #59, #171 ) ;
#17 = CC_DESIGN_PERSON_AND_ORGANIZATION_ASSIGNMENT ( #158, #7, ( #95 ) ) ;
#18 = EDGE_LOOP ( 'NONE', ( #36 ) ) ;
#19 = EDGE_LOOP ( 'NONE', ( #54 ) ) ;
#20 = AXIS2_PLACEMENT_3D ( 'NONE', #27, #112, #79 ) ;
#21 = CARTESIAN_POINT ( 'NONE',  ( 2.094888803305880013E-13, -7.347880794884118356E-15, 60.00000000000000000 ) ) ;
#22 = LOCAL_TIME ( 9, 40, 46.00000000000000000, #13 ) ;
#23 = FACE_OUTER_BOUND ( 'NONE', #71, .T. ) ;
#24 =( LENGTH_UNIT ( ) NAMED_UNIT ( * ) SI_UNIT ( .MILLI., .METRE. ) );
#25 = CARTESIAN_POINT ( 'NONE',  ( 0.0000000000000000000, 0.0000000000000000000, 0.0000000000000000000 ) ) ;
#26 = PERSON_AND_ORGANIZATION ( #155, #164 ) ;
#27 = CARTESIAN_POINT ( 'NONE',  ( 2.094888803305880013E-13, 1.799711739194218455E-32, 60.00000000000000000 ) ) ;
#28 = PERSON_AND_ORGANIZATION ( #155, #164 ) ;
#29 = UNCERTAINTY_MEASURE_WITH_UNIT (LENGTH_MEASURE( 1.000000000000000082E-05 ), #24, 'distance_accuracy_value', 'NONE');
#30 = APPROVAL_STATUS ( 'not_yet_approved' ) ;
#31 = EDGE_CURVE ( 'NONE', #40, #40, #121, .T. ) ;
#32 = LOCAL_TIME ( 9, 40, 46.00000000000000000, #66 ) ;
#33 = CC_DESIGN_APPROVAL ( #65, ( #88 ) ) ;
#34 = EDGE_LOOP ( 'NONE', ( #105 ) ) ;
#35 = ORIENTED_EDGE ( 'NONE', *, *, #199, .T. ) ;
#36 = ORIENTED_EDGE ( 'NONE', *, *, #172, .F. ) ;
#37 = DIRECTION ( 'NONE',  ( -4.275831445896958607E-31, -1.000000000000000000, -1.224646799147353207E-16 ) ) ;
#38 = DIRECTION ( 'NONE',  ( -4.275831445896958607E-31, -1.000000000000000000, -1.224646799147353207E-16 ) ) ;
#39 = ADVANCED_BREP_SHAPE_REPRESENTATION ( '376938', ( #53, #184, #185 ), #42 ) ;
#40 = VERTEX_POINT ( 'NONE', #74 ) ;
#41 = PRODUCT_RELATED_PRODUCT_CATEGORY ( 'detail', '', ( #95 ) ) ;
#42 =( GEOMETRIC_REPRESENTATION_CONTEXT ( 3 ) GLOBAL_UNCERTAINTY_ASSIGNED_CONTEXT ( ( #29 ) ) GLOBAL_UNIT_ASSIGNED_CONTEXT ( ( #24, #107, #159 ) ) REPRESENTATION_CONTEXT ( 'NONE', 'WORKASPACE' ) );
#43 = DESIGN_CONTEXT ( 'detailed design', #75, 'design' ) ;
#44 = DATE_AND_TIME ( #188, #173 ) ;
#45 = COORDINATED_UNIVERSAL_TIME_OFFSET ( 1, 0, .AHEAD. ) ;
#46 = ADVANCED_FACE ( 'NONE', ( #115, #55 ), #101, .T. ) ;
#47 = PERSON_AND_ORGANIZATION ( #155, #164 ) ;
#48 = AXIS2_PLACEMENT_3D ( 'NONE', #82, #146, #99 ) ;
#49 = DATE_AND_TIME ( #190, #32 ) ;
#50 = CC_DESIGN_DATE_AND_TIME_ASSIGNMENT ( #44, #111, ( #142 ) ) ;
#51 = APPLICATION_CONTEXT ( 'configuration controlled 3d designs of mechanical parts and assemblies' ) ;
#52 = ADVANCED_FACE ( 'NONE', ( #165 ), #167, .T. ) ;
#53 = MANIFOLD_SOLID_BREP ( 'Corps-Déplacer/Copier1[1]', #196 ) ;
#54 = ORIENTED_EDGE ( 'NONE', *, *, #76, .T. ) ;
#55 = FACE_OUTER_BOUND ( 'NONE', #3, .T. ) ;
#56 = DIRECTION ( 'NONE',  ( -3.491481338843133355E-15, 1.224646799147353207E-16, -1.000000000000000000 ) ) ;
#57 = CC_DESIGN_APPROVAL ( #161, ( #191 ) ) ;
#58 = EDGE_LOOP ( 'NONE', ( #132 ) ) ;
#59 = DIRECTION ( 'NONE',  ( 3.491481338843133355E-15, -1.224646799147353207E-16, 1.000000000000000000 ) ) ;
#60 = CC_DESIGN_PERSON_AND_ORGANIZATION_ASSIGNMENT ( #67, #127, ( #191 ) ) ;
#61 = CARTESIAN_POINT ( 'NONE',  ( -8.551741261147046407E-31, 2.999547053592489357E-32, -2.449316044169544088E-16 ) ) ;
#62 = MECHANICAL_CONTEXT ( 'NONE', #51, 'mechanical' ) ;
#63 = DIRECTION ( 'NONE',  ( -3.491481338843133355E-15, 1.224646799147353207E-16, -1.000000000000000000 ) ) ;
#64 = AXIS2_PLACEMENT_3D ( 'NONE', #86, #118, #104 ) ;
#65 = APPROVAL ( #147, 'UNSPECIFIED' ) ;
#66 = COORDINATED_UNIVERSAL_TIME_OFFSET ( 1, 0, .AHEAD. ) ;
#67 = PERSON_AND_ORGANIZATION ( #155, #164 ) ;
#68 = COORDINATED_UNIVERSAL_TIME_OFFSET ( 1, 0, .AHEAD. ) ;
#69 = ORIENTED_EDGE ( 'NONE', *, *, #199, .F. ) ;
#70 = DIRECTION ( 'NONE',  ( 0.0000000000000000000, 1.000000000000000000, 0.0000000000000000000 ) ) ;
#71 = EDGE_LOOP ( 'NONE', ( #69 ) ) ;
#72 = APPROVAL_PERSON_ORGANIZATION ( #26, #65, #201 ) ;
#73 = CARTESIAN_POINT ( 'NONE',  ( 4.189777606611760026E-14, -1.469576158976823947E-15, 12.00000000000000000 ) ) ;
#74 = CARTESIAN_POINT ( 'NONE',  ( 4.189777606611760026E-14, 2.999999999999992895, 12.00000000000000000 ) ) ;
#75 = APPLICATION_CONTEXT ( 'configuration controlled 3d designs of mechanical parts and assemblies' ) ;
#76 = EDGE_CURVE ( 'NONE', #8, #8, #4, .T. ) ;
#77 = CC_DESIGN_APPROVAL ( #10, ( #142 ) ) ;
#78 = DATE_TIME_ROLE ( 'creation_date' ) ;
#79 = DIRECTION ( 'NONE',  ( 4.275831445896958607E-31, 1.000000000000000000, 1.224646799147353207E-16 ) ) ;
#80 = CALENDAR_DATE ( 2021, 8, 12 ) ;
#81 = APPROVAL_STATUS ( 'not_yet_approved' ) ;
#82 = CARTESIAN_POINT ( 'NONE',  ( 0.0000000000000000000, 0.0000000000000000000, 0.0000000000000000000 ) ) ;
#83 = LOCAL_TIME ( 9, 40, 46.00000000000000000, #68 ) ;
#84 = CARTESIAN_POINT ( 'NONE',  ( 4.189777606611760026E-14, 2.249639673992780117E-32, 12.00000000000000000 ) ) ;
#85 = DIRECTION ( 'NONE',  ( -3.491481338843133355E-15, 1.224646799147353207E-16, -1.000000000000000000 ) ) ;
#86 = CARTESIAN_POINT ( 'NONE',  ( 0.0000000000000000000, 0.0000000000000000000, 0.0000000000000000000 ) ) ;
#87 = CARTESIAN_POINT ( 'NONE',  ( 4.189777606611760026E-14, 2.249639673992780117E-32, 12.00000000000000000 ) ) ;
#88 = PRODUCT_DEFINITION ( 'UNKNOWN', '', #191, #43 ) ;
#89 = PLANE ( 'NONE',  #20 ) ;
#90 = AXIS2_PLACEMENT_3D ( 'NONE', #87, #139, #38 ) ;
#91 = CARTESIAN_POINT ( 'NONE',  ( 2.073939915272820834E-13, 2.999999999999992895, 59.39999999999999147 ) ) ;
#92 = ADVANCED_FACE ( 'NONE', ( #6 ), #195, .F. ) ;
#93 = PERSON_AND_ORGANIZATION ( #155, #164 ) ;
#94 = PERSON_AND_ORGANIZATION_ROLE ( 'creator' ) ;
#95 = PRODUCT ( '376938', '376938', '', ( #62 ) ) ;
#96 = CC_DESIGN_PERSON_AND_ORGANIZATION_ASSIGNMENT ( #202, #94, ( #191 ) ) ;
#97 = APPROVAL_ROLE ( '' ) ;
#98 = COORDINATED_UNIVERSAL_TIME_OFFSET ( 1, 0, .AHEAD. ) ;
#99 = DIRECTION ( 'NONE',  ( 4.275831445896958607E-31, 1.000000000000000000, 1.224646799147352961E-16 ) ) ;
#100 = CIRCLE ( 'NONE', #140, 3.000000000000000000 ) ;
#101 = CYLINDRICAL_SURFACE ( 'NONE', #64, 2.999999999999996891 ) ;
#102 = ORIENTED_EDGE ( 'NONE', *, *, #109, .T. ) ;
#103 = ADVANCED_FACE ( 'NONE', ( #23 ), #89, .F. ) ;
#104 = DIRECTION ( 'NONE',  ( 4.275831445896958607E-31, 1.000000000000000000, 1.224646799147353207E-16 ) ) ;
#105 = ORIENTED_EDGE ( 'NONE', *, *, #109, .F. ) ;
#106 = CARTESIAN_POINT ( 'NONE',  ( -4.275870630573523203E-31, 1.499773526796244679E-32, -1.224658022084772044E-16 ) ) ;
#107 =( NAMED_UNIT ( * ) PLANE_ANGLE_UNIT ( ) SI_UNIT ( $, .RADIAN. ) );
#108 = CALENDAR_DATE ( 2021, 8, 12 ) ;
#109 = EDGE_CURVE ( 'NONE', #183, #183, #100, .T. ) ;
#110 = CLOSED_SHELL ( 'NONE', ( #92, #123, #52 ) ) ;
#111 = DATE_TIME_ROLE ( 'classification_date' ) ;
#112 = DIRECTION ( 'NONE',  ( -3.491481338843133355E-15, 1.224646799147353207E-16, -1.000000000000000000 ) ) ;
#113 = DATE_AND_TIME ( #80, #22 ) ;
#114 = FACE_OUTER_BOUND ( 'NONE', #19, .T. ) ;
#115 = FACE_OUTER_BOUND ( 'NONE', #58, .T. ) ;
#116 = FACE_OUTER_BOUND ( 'NONE', #153, .T. ) ;
#117 = CIRCLE ( 'NONE', #181, 2.999999999999992895 ) ;
#118 = DIRECTION ( 'NONE',  ( -3.491481338843133355E-15, 1.224646799147353207E-16, -1.000000000000000000 ) ) ;
#119 = EDGE_LOOP ( 'NONE', ( #151 ) ) ;
#120 = DIRECTION ( 'NONE',  ( 0.0000000000000000000, 0.0000000000000000000, 1.000000000000000000 ) ) ;
#121 = CIRCLE ( 'NONE', #125, 2.999999999999993783 ) ;
#122 = DIRECTION ( 'NONE',  ( 0.0000000000000000000, 1.000000000000000000, 0.0000000000000000000 ) ) ;
#123 = ADVANCED_FACE ( 'NONE', ( #128, #114 ), #15, .T. ) ;
#124 = AXIS2_PLACEMENT_3D ( 'NONE', #160, #156, #122 ) ;
#125 = AXIS2_PLACEMENT_3D ( 'NONE', #194, #56, #137 ) ;
#126 = CARTESIAN_POINT ( 'NONE',  ( 4.275753076543797008E-31, 2.999999999999992895, 1.224624353272506412E-16 ) ) ;
#127 = PERSON_AND_ORGANIZATION_ROLE ( 'design_supplier' ) ;
#128 = FACE_OUTER_BOUND ( 'NONE', #18, .T. ) ;
#129 = SECURITY_CLASSIFICATION_LEVEL ( 'unclassified' ) ;
#130 = DATE_AND_TIME ( #203, #148 ) ;
#131 = APPROVAL_PERSON_ORGANIZATION ( #28, #10, #97 ) ;
#132 = ORIENTED_EDGE ( 'NONE', *, *, #31, .F. ) ;
#133 = CC_DESIGN_PERSON_AND_ORGANIZATION_ASSIGNMENT ( #93, #14, ( #88 ) ) ;
#134 = EDGE_LOOP ( 'NONE', ( #35 ) ) ;
#135 = ORIENTED_EDGE ( 'NONE', *, *, #31, .T. ) ;
#136 = AXIS2_PLACEMENT_3D ( 'NONE', #73, #138, #157 ) ;
#137 = DIRECTION ( 'NONE',  ( 0.0000000000000000000, 1.000000000000000000, 0.0000000000000000000 ) ) ;
#138 = DIRECTION ( 'NONE',  ( -3.491481338843133355E-15, 1.224646799147353207E-16, -1.000000000000000000 ) ) ;
#139 = DIRECTION ( 'NONE',  ( 3.491481338843133355E-15, -1.224646799147353207E-16, 1.000000000000000000 ) ) ;
#140 = AXIS2_PLACEMENT_3D ( 'NONE', #1, #144, #163 ) ;
#141 = APPLICATION_PROTOCOL_DEFINITION ( 'international standard', 'config_control_design', 1994, #51 ) ;
#142 = SECURITY_CLASSIFICATION ( '', '', #129 ) ;
#143 = PERSON_AND_ORGANIZATION ( #155, #164 ) ;
#144 = DIRECTION ( 'NONE',  ( -3.491481338843133355E-15, 1.224646799147353207E-16, -1.000000000000000000 ) ) ;
#145 = APPROVAL_DATE_TIME ( #113, #161 ) ;
#146 = DIRECTION ( 'NONE',  ( -3.491481338843133355E-15, 1.224646799147353207E-16, -1.000000000000000000 ) ) ;
#147 = APPROVAL_STATUS ( 'not_yet_approved' ) ;
#148 = LOCAL_TIME ( 9, 40, 46.00000000000000000, #98 ) ;
#149 = SHAPE_DEFINITION_REPRESENTATION ( #197, #39 ) ;
#150 = ADVANCED_FACE ( 'NONE', ( #177, #169 ), #166, .T. ) ;
#151 = ORIENTED_EDGE ( 'NONE', *, *, #76, .F. ) ;
#152 = ADVANCED_FACE ( 'NONE', ( #116 ), #11, .F. ) ;
#153 = EDGE_LOOP ( 'NONE', ( #135 ) ) ;
#154 = CIRCLE ( 'NONE', #124, 2.400000000000000355 ) ;
#155 = PERSON ( 'UNSPECIFIED', 'UNSPECIFIED', 'UNSPECIFIED', ('UNSPECIFIED'), ('UNSPECIFIED'), ('UNSPECIFIED') ) ;
#156 = DIRECTION ( 'NONE',  ( -3.491481338843133355E-15, 1.224646799147353207E-16, -1.000000000000000000 ) ) ;
#157 = DIRECTION ( 'NONE',  ( 0.0000000000000000000, 1.000000000000000000, 0.0000000000000000000 ) ) ;
#158 = PERSON_AND_ORGANIZATION ( #155, #164 ) ;
#159 =( NAMED_UNIT ( * ) SI_UNIT ( $, .STERADIAN. ) SOLID_ANGLE_UNIT ( ) );
#160 = CARTESIAN_POINT ( 'NONE',  ( 2.094888803305880013E-13, -7.347880794884118356E-15, 60.00000000000000000 ) ) ;
#161 = APPROVAL ( #30, 'UNSPECIFIED' ) ;
#162 = DATE_AND_TIME ( #108, #83 ) ;
#163 = DIRECTION ( 'NONE',  ( 0.0000000000000000000, 1.000000000000000000, 0.0000000000000000000 ) ) ;
#164 = ORGANIZATION ( 'UNSPECIFIED', 'UNSPECIFIED', '' ) ;
#165 = FACE_OUTER_BOUND ( 'NONE', #119, .T. ) ;
#166 = CONICAL_SURFACE ( 'NONE', #179, 2.400000000000000355, 0.7853981633974453924 ) ;
#167 = PLANE ( 'NONE',  #12 ) ;
#168 = CC_DESIGN_PERSON_AND_ORGANIZATION_ASSIGNMENT ( #47, #187, ( #142 ) ) ;
#169 = FACE_BOUND ( 'NONE', #134, .T. ) ;
#170 = CARTESIAN_POINT ( 'NONE',  ( 4.189777606611760026E-14, 2.999999999999992895, 12.00000000000000000 ) ) ;
#171 = DIRECTION ( 'NONE',  ( -4.275831445896958607E-31, -1.000000000000000000, -1.224646799147353207E-16 ) ) ;
#172 = EDGE_CURVE ( 'NONE', #198, #198, #117, .T. ) ;
#173 = LOCAL_TIME ( 9, 40, 46.00000000000000000, #45 ) ;
#174 = CC_DESIGN_DATE_AND_TIME_ASSIGNMENT ( #49, #78, ( #88 ) ) ;
#175 = APPROVAL_DATE_TIME ( #130, #65 ) ;
#176 = APPROVAL_DATE_TIME ( #162, #10 ) ;
#177 = FACE_OUTER_BOUND ( 'NONE', #34, .T. ) ;
#178 = APPROVAL_PERSON_ORGANIZATION ( #143, #161, #186 ) ;
#179 = AXIS2_PLACEMENT_3D ( 'NONE', #21, #85, #70 ) ;
#180 = DIRECTION ( 'NONE',  ( 3.491481338843133355E-15, -1.224646799147353207E-16, 1.000000000000000000 ) ) ;
#181 = AXIS2_PLACEMENT_3D ( 'NONE', #61, #63, #189 ) ;
#182 = DIRECTION ( 'NONE',  ( 1.000000000000000000, 0.0000000000000000000, 0.0000000000000000000 ) ) ;
#183 = VERTEX_POINT ( 'NONE', #91 ) ;
#184 = MANIFOLD_SOLID_BREP ( 'Corps-Déplacer/Copier1[2]', #110 ) ;
#185 = AXIS2_PLACEMENT_3D ( 'NONE', #25, #120, #182 ) ;
#186 = APPROVAL_ROLE ( '' ) ;
#187 = PERSON_AND_ORGANIZATION_ROLE ( 'classification_officer' ) ;
#188 = CALENDAR_DATE ( 2021, 8, 12 ) ;
#189 = DIRECTION ( 'NONE',  ( 4.275831445896958607E-31, 1.000000000000000000, 1.224646799147352961E-16 ) ) ;
#190 = CALENDAR_DATE ( 2021, 8, 12 ) ;
#191 = PRODUCT_DEFINITION_FORMATION_WITH_SPECIFIED_SOURCE ( 'ANY', '', #95, .NOT_KNOWN. ) ;
#192 = EDGE_LOOP ( 'NONE', ( #2 ) ) ;
#193 = CC_DESIGN_SECURITY_CLASSIFICATION ( #142, ( #191 ) ) ;
#194 = CARTESIAN_POINT ( 'NONE',  ( 4.189777606611760026E-14, -1.469576158976823947E-15, 12.00000000000000000 ) ) ;
#195 = PLANE ( 'NONE',  #16 ) ;
#196 = CLOSED_SHELL ( 'NONE', ( #152, #46, #150, #103 ) ) ;
#197 = PRODUCT_DEFINITION_SHAPE ( 'NONE', 'NONE',  #88 ) ;
#198 = VERTEX_POINT ( 'NONE', #126 ) ;
#199 = EDGE_CURVE ( 'NONE', #5, #5, #154, .T. ) ;
#200 = CARTESIAN_POINT ( 'NONE',  ( 2.094888803305880013E-13, 2.399999999999992806, 60.00000000000000000 ) ) ;
#201 = APPROVAL_ROLE ( '' ) ;
#202 = PERSON_AND_ORGANIZATION ( #155, #164 ) ;
#203 = CALENDAR_DATE ( 2021, 8, 12 ) ;
ENDSEC;
END-ISO-10303-21;
