ISO-10303-21;
HEADER;
FILE_DESCRIPTION (( 'STEP AP203' ),
    '1' );
FILE_NAME ('376937.step',
    '2021-12-08T08:40:46',
    ( '' ),
    ( '' ),
    'SwSTEP 2.0',
    'SolidWorks 2019',
    '' );
FILE_SCHEMA (( 'CONFIG_CONTROL_DESIGN' ));
ENDSEC;

DATA;
#1 = DIRECTION ( 'NONE',  ( 0.0000000000000000000, -1.000000000000000000, 0.0000000000000000000 ) ) ;
#2 = AXIS2_PLACEMENT_3D ( 'NONE', #38, #165, #131 ) ;
#3 = FACE_OUTER_BOUND ( 'NONE', #169, .T. ) ;
#4 = CARTESIAN_POINT ( 'NONE',  ( 2.077431396611664157E-13, 2.999999999999988454, 59.50000000000000000 ) ) ;
#5 = CALENDAR_DATE ( 2021, 8, 12 ) ;
#6 = PERSON_AND_ORGANIZATION_ROLE ( 'creator' ) ;
#7 = APPLICATION_PROTOCOL_DEFINITION ( 'international standard', 'config_control_design', 1994, #184 ) ;
#8 = DATE_TIME_ROLE ( 'creation_date' ) ;
#9 = AXIS2_PLACEMENT_3D ( 'NONE', #86, #47, #154 ) ;
#10 = DATE_AND_TIME ( #29, #220 ) ;
#11 = DATE_TIME_ROLE ( 'classification_date' ) ;
#12 = AXIS2_PLACEMENT_3D ( 'NONE', #121, #192, #139 ) ;
#13 = ORIENTED_EDGE ( 'NONE', *, *, #113, .T. ) ;
#14 = ADVANCED_FACE ( 'NONE', ( #188, #32 ), #210, .T. ) ;
#15 = ORIENTED_EDGE ( 'NONE', *, *, #46, .T. ) ;
#16 = EDGE_LOOP ( 'NONE', ( #13 ) ) ;
#17 = DIRECTION ( 'NONE',  ( -3.491481338843133355E-15, 1.224646799147353207E-16, -1.000000000000000000 ) ) ;
#18 = AXIS2_PLACEMENT_3D ( 'NONE', #222, #34, #52 ) ;
#19 = DIRECTION ( 'NONE',  ( 3.491481338843133355E-15, -1.224646799147353207E-16, 1.000000000000000000 ) ) ;
#20 = DIRECTION ( 'NONE',  ( 0.0000000000000000000, 1.000000000000000000, 0.0000000000000000000 ) ) ;
#21 = DIRECTION ( 'NONE',  ( 3.491481338843133355E-15, -1.224646799147353207E-16, 1.000000000000000000 ) ) ;
#22 = EDGE_CURVE ( 'NONE', #173, #173, #195, .T. ) ;
#23 = DIRECTION ( 'NONE',  ( -3.491481338843133355E-15, 1.224646799147353207E-16, -1.000000000000000000 ) ) ;
#24 = SECURITY_CLASSIFICATION_LEVEL ( 'unclassified' ) ;
#25 = CC_DESIGN_PERSON_AND_ORGANIZATION_ASSIGNMENT ( #111, #6, ( #105 ) ) ;
#26 = AXIS2_PLACEMENT_3D ( 'NONE', #212, #85, #50 ) ;
#27 = PERSON_AND_ORGANIZATION ( #189, #199 ) ;
#28 = COORDINATED_UNIVERSAL_TIME_OFFSET ( 1, 0, .AHEAD. ) ;
#29 = CALENDAR_DATE ( 2021, 8, 12 ) ;
#30 = APPROVAL_STATUS ( 'not_yet_approved' ) ;
#31 = APPROVAL_PERSON_ORGANIZATION ( #149, #83, #97 ) ;
#32 = FACE_OUTER_BOUND ( 'NONE', #151, .T. ) ;
#33 = PLANE ( 'NONE',  #137 ) ;
#34 = DIRECTION ( 'NONE',  ( 3.491481338843133355E-15, -1.276467311168695266E-16, 1.000000000000000000 ) ) ;
#35 = DIRECTION ( 'NONE',  ( -3.491481338843133355E-15, 1.224646799147353207E-16, -1.000000000000000000 ) ) ;
#36 = CC_DESIGN_PERSON_AND_ORGANIZATION_ASSIGNMENT ( #201, #216, ( #214 ) ) ;
#37 = DIRECTION ( 'NONE',  ( 3.491481338843133355E-15, -1.276467311168695266E-16, 1.000000000000000000 ) ) ;
#38 = CARTESIAN_POINT ( 'NONE',  ( 0.0000000000000000000, 0.0000000000000000000, 0.0000000000000000000 ) ) ;
#39 = PERSON_AND_ORGANIZATION_ROLE ( 'design_supplier' ) ;
#40 = PERSON_AND_ORGANIZATION ( #189, #199 ) ;
#41 = CIRCLE ( 'NONE', #26, 2.499999999999998668 ) ;
#42 = PERSON_AND_ORGANIZATION_ROLE ( 'classification_officer' ) ;
#43 = PRODUCT_RELATED_PRODUCT_CATEGORY ( 'detail', '', ( #191 ) ) ;
#44 = AXIS2_PLACEMENT_3D ( 'NONE', #213, #17, #123 ) ;
#45 = AXIS2_PLACEMENT_3D ( 'NONE', #48, #67, #124 ) ;
#46 = EDGE_CURVE ( 'NONE', #69, #69, #94, .T. ) ;
#47 = DIRECTION ( 'NONE',  ( -3.491481338843133355E-15, 1.224646799147353207E-16, -1.000000000000000000 ) ) ;
#48 = CARTESIAN_POINT ( 'NONE',  ( 4.189777606611760026E-14, -1.531760773402434319E-15, 12.00000000000000000 ) ) ;
#49 = PRODUCT_DEFINITION_SHAPE ( 'NONE', 'NONE',  #105 ) ;
#50 = DIRECTION ( 'NONE',  ( 0.0000000000000000000, -1.000000000000000000, 0.0000000000000000000 ) ) ;
#51 = CARTESIAN_POINT ( 'NONE',  ( 2.094888803305880013E-13, -7.347880794884118356E-15, 60.00000000000000000 ) ) ;
#52 = DIRECTION ( 'NONE',  ( 0.0000000000000000000, -1.000000000000000000, 0.0000000000000000000 ) ) ;
#53 = CC_DESIGN_APPROVAL ( #166, ( #105 ) ) ;
#54 = APPROVAL_STATUS ( 'not_yet_approved' ) ;
#55 = APPROVAL_ROLE ( '' ) ;
#56 = CC_DESIGN_APPROVAL ( #83, ( #103 ) ) ;
#57 = PERSON_AND_ORGANIZATION ( #189, #199 ) ;
#58 = CC_DESIGN_DATE_AND_TIME_ASSIGNMENT ( #10, #11, ( #103 ) ) ;
#59 = COORDINATED_UNIVERSAL_TIME_OFFSET ( 1, 0, .AHEAD. ) ;
#60 = APPROVAL_DATE_TIME ( #218, #83 ) ;
#61 = ORIENTED_EDGE ( 'NONE', *, *, #120, .T. ) ;
#62 = ORIENTED_EDGE ( 'NONE', *, *, #46, .F. ) ;
#63 = CIRCLE ( 'NONE', #145, 2.499999999999995115 ) ;
#64 = CC_DESIGN_PERSON_AND_ORGANIZATION_ASSIGNMENT ( #57, #39, ( #214 ) ) ;
#65 = PLANE ( 'NONE',  #118 ) ;
#66 = DIRECTION ( 'NONE',  ( -3.491481338843133355E-15, 1.276467311168695266E-16, -1.000000000000000000 ) ) ;
#67 = DIRECTION ( 'NONE',  ( 3.491481338843133355E-15, -1.276467311168695266E-16, 1.000000000000000000 ) ) ;
#68 = DIRECTION ( 'NONE',  ( 0.0000000000000000000, 1.000000000000000000, 0.0000000000000000000 ) ) ;
#69 = VERTEX_POINT ( 'NONE', #144 ) ;
#70 = VERTEX_POINT ( 'NONE', #176 ) ;
#71 = AXIS2_PLACEMENT_3D ( 'NONE', #172, #23, #171 ) ;
#72 = APPROVAL_STATUS ( 'not_yet_approved' ) ;
#73 = MECHANICAL_CONTEXT ( 'NONE', #184, 'mechanical' ) ;
#74 = CARTESIAN_POINT ( 'NONE',  ( 4.841296894123811173E-14, -2.999999999999996003, 13.86602540378441617 ) ) ;
#75 = APPROVAL ( #72, 'UNSPECIFIED' ) ;
#76 = CALENDAR_DATE ( 2021, 8, 12 ) ;
#77 = CALENDAR_DATE ( 2021, 8, 12 ) ;
#78 = UNCERTAINTY_MEASURE_WITH_UNIT (LENGTH_MEASURE( 1.000000000000000082E-05 ), #215, 'distance_accuracy_value', 'NONE');
#79 = ORIENTED_EDGE ( 'NONE', *, *, #200, .T. ) ;
#80 = EDGE_LOOP ( 'NONE', ( #186 ) ) ;
#81 = MANIFOLD_SOLID_BREP ( 'Corps-Déplacer/Copier1[1]', #178 ) ;
#82 = EDGE_LOOP ( 'NONE', ( #204 ) ) ;
#83 = APPROVAL ( #30, 'UNSPECIFIED' ) ;
#84 = LOCAL_TIME ( 9, 40, 46.00000000000000000, #164 ) ;
#85 = DIRECTION ( 'NONE',  ( 3.491481338843133355E-15, -1.276467311168695266E-16, 1.000000000000000000 ) ) ;
#86 = CARTESIAN_POINT ( 'NONE',  ( 2.077431396611664157E-13, -7.286648454926750781E-15, 59.50000000000000000 ) ) ;
#87 = PLANE ( 'NONE',  #71 ) ;
#88 = FACE_OUTER_BOUND ( 'NONE', #206, .T. ) ;
#89 = ADVANCED_BREP_SHAPE_REPRESENTATION ( '376937', ( #81, #160, #2 ), #134 ) ;
#90 = FACE_OUTER_BOUND ( 'NONE', #135, .T. ) ;
#91 = PERSON_AND_ORGANIZATION ( #189, #199 ) ;
#92 = ADVANCED_FACE ( 'NONE', ( #209, #193 ), #167, .T. ) ;
#93 = VERTEX_POINT ( 'NONE', #74 ) ;
#94 = CIRCLE ( 'NONE', #45, 2.499999999999998668 ) ;
#95 = PERSON_AND_ORGANIZATION ( #189, #199 ) ;
#96 = APPROVAL_DATE_TIME ( #177, #75 ) ;
#97 = APPROVAL_ROLE ( '' ) ;
#98 = ORIENTED_EDGE ( 'NONE', *, *, #120, .F. ) ;
#99 = AXIS2_PLACEMENT_3D ( 'NONE', #223, #140, #175 ) ;
#100 = EDGE_LOOP ( 'NONE', ( #98 ) ) ;
#101 = CC_DESIGN_PERSON_AND_ORGANIZATION_ASSIGNMENT ( #95, #42, ( #103 ) ) ;
#102 = FACE_OUTER_BOUND ( 'NONE', #82, .T. ) ;
#103 = SECURITY_CLASSIFICATION ( '', '', #24 ) ;
#104 = DIRECTION ( 'NONE',  ( -4.275831445896958607E-31, -1.000000000000000000, -1.224646799147353207E-16 ) ) ;
#105 = PRODUCT_DEFINITION ( 'UNKNOWN', '', #214, #221 ) ;
#106 = PLANE ( 'NONE',  #99 ) ;
#107 = CARTESIAN_POINT ( 'NONE',  ( -4.275828886814231645E-31, 1.499758885056467308E-32, -1.224646066196929391E-16 ) ) ;
#108 = AXIS2_PLACEMENT_3D ( 'NONE', #159, #66, #1 ) ;
#109 = DIRECTION ( 'NONE',  ( -4.456761796588770537E-31, -1.000000000000000000, -1.276467311168695019E-16 ) ) ;
#110 =( NAMED_UNIT ( * ) PLANE_ANGLE_UNIT ( ) SI_UNIT ( $, .RADIAN. ) );
#111 = PERSON_AND_ORGANIZATION ( #189, #199 ) ;
#112 = CIRCLE ( 'NONE', #12, 2.499999999999998668 ) ;
#113 = EDGE_CURVE ( 'NONE', #211, #211, #41, .T. ) ;
#114 = CARTESIAN_POINT ( 'NONE',  ( 4.189777606611760026E-14, -2.500000000000000444, 12.00000000000000000 ) ) ;
#115 = LOCAL_TIME ( 9, 40, 46.00000000000000000, #59 ) ;
#116 = ORIENTED_EDGE ( 'NONE', *, *, #157, .T. ) ;
#117 = CC_DESIGN_PERSON_AND_ORGANIZATION_ASSIGNMENT ( #91, #161, ( #191 ) ) ;
#118 = AXIS2_PLACEMENT_3D ( 'NONE', #107, #21, #127 ) ;
#119 = EDGE_LOOP ( 'NONE', ( #15 ) ) ;
#120 = EDGE_CURVE ( 'NONE', #133, #133, #63, .T. ) ;
#121 = CARTESIAN_POINT ( 'NONE',  ( -3.038314599800821248E-30, 8.763052979102689433E-32, -8.702078874084819584E-16 ) ) ;
#122 = CIRCLE ( 'NONE', #108, 2.999999999999994227 ) ;
#123 = DIRECTION ( 'NONE',  ( 4.275831445896959482E-31, 1.000000000000000000, 1.224646799147353454E-16 ) ) ;
#124 = DIRECTION ( 'NONE',  ( 0.0000000000000000000, -1.000000000000000000, 0.0000000000000000000 ) ) ;
#125 = FACE_OUTER_BOUND ( 'NONE', #80, .T. ) ;
#126 = ADVANCED_FACE ( 'NONE', ( #88 ), #65, .F. ) ;
#127 = DIRECTION ( 'NONE',  ( -4.275831445896958607E-31, -1.000000000000000000, -1.224646799147353207E-16 ) ) ;
#128 = APPROVAL_DATE_TIME ( #217, #166 ) ;
#129 = CARTESIAN_POINT ( 'NONE',  ( 2.094888803305880013E-13, 2.499999999999988010, 60.00000000000000000 ) ) ;
#130 = APPLICATION_CONTEXT ( 'configuration controlled 3d designs of mechanical parts and assemblies' ) ;
#131 = DIRECTION ( 'NONE',  ( 1.000000000000000000, 0.0000000000000000000, 0.0000000000000000000 ) ) ;
#132 = APPROVAL_PERSON_ORGANIZATION ( #27, #75, #147 ) ;
#133 = VERTEX_POINT ( 'NONE', #129 ) ;
#134 =( GEOMETRIC_REPRESENTATION_CONTEXT ( 3 ) GLOBAL_UNCERTAINTY_ASSIGNED_CONTEXT ( ( #78 ) ) GLOBAL_UNIT_ASSIGNED_CONTEXT ( ( #215, #110, #148 ) ) REPRESENTATION_CONTEXT ( 'NONE', 'WORKASPACE' ) );
#135 = EDGE_LOOP ( 'NONE', ( #138 ) ) ;
#136 = EDGE_LOOP ( 'NONE', ( #62 ) ) ;
#137 = AXIS2_PLACEMENT_3D ( 'NONE', #142, #19, #104 ) ;
#138 = ORIENTED_EDGE ( 'NONE', *, *, #113, .F. ) ;
#139 = DIRECTION ( 'NONE',  ( -4.456761796588771413E-31, -1.000000000000000000, -1.276467311168695512E-16 ) ) ;
#140 = DIRECTION ( 'NONE',  ( 3.491481338843133355E-15, -1.224646799147353207E-16, 1.000000000000000000 ) ) ;
#141 = AXIS2_PLACEMENT_3D ( 'NONE', #190, #37, #109 ) ;
#142 = CARTESIAN_POINT ( 'NONE',  ( 4.189777606611760026E-14, 2.249639673992779569E-32, 12.00000000000000000 ) ) ;
#143 = CARTESIAN_POINT ( 'NONE',  ( 2.094888803305880013E-13, -7.347880794884118356E-15, 60.00000000000000000 ) ) ;
#144 = CARTESIAN_POINT ( 'NONE',  ( 4.189777606611760026E-14, -2.500000000000000444, 12.00000000000000000 ) ) ;
#145 = AXIS2_PLACEMENT_3D ( 'NONE', #51, #35, #20 ) ;
#146 = ADVANCED_FACE ( 'NONE', ( #125, #102 ), #158, .T. ) ;
#147 = APPROVAL_ROLE ( '' ) ;
#148 =( NAMED_UNIT ( * ) SI_UNIT ( $, .STERADIAN. ) SOLID_ANGLE_UNIT ( ) );
#149 = PERSON_AND_ORGANIZATION ( #189, #199 ) ;
#150 = CLOSED_SHELL ( 'NONE', ( #180, #162, #126 ) ) ;
#151 = EDGE_LOOP ( 'NONE', ( #79 ) ) ;
#152 = ORIENTED_EDGE ( 'NONE', *, *, #22, .F. ) ;
#153 = LOCAL_TIME ( 9, 40, 46.00000000000000000, #28 ) ;
#154 = DIRECTION ( 'NONE',  ( 0.0000000000000000000, 1.000000000000000000, 0.0000000000000000000 ) ) ;
#155 = CYLINDRICAL_SURFACE ( 'NONE', #141, 2.499999999999998668 ) ;
#156 = LOCAL_TIME ( 9, 40, 46.00000000000000000, #168 ) ;
#157 = EDGE_CURVE ( 'NONE', #70, #70, #112, .T. ) ;
#158 = CYLINDRICAL_SURFACE ( 'NONE', #44, 2.999999999999994227 ) ;
#159 = CARTESIAN_POINT ( 'NONE',  ( 4.841296894123811173E-14, -1.769952816376552007E-15, 13.86602540378441617 ) ) ;
#160 = MANIFOLD_SOLID_BREP ( 'Corps-Déplacer/Copier1[2]', #150 ) ;
#161 = PERSON_AND_ORGANIZATION_ROLE ( 'design_owner' ) ;
#162 = ADVANCED_FACE ( 'NONE', ( #3, #194 ), #155, .T. ) ;
#163 = APPROVAL_PERSON_ORGANIZATION ( #40, #166, #55 ) ;
#164 = COORDINATED_UNIVERSAL_TIME_OFFSET ( 1, 0, .AHEAD. ) ;
#165 = DIRECTION ( 'NONE',  ( 0.0000000000000000000, 0.0000000000000000000, 1.000000000000000000 ) ) ;
#166 = APPROVAL ( #54, 'UNSPECIFIED' ) ;
#167 = CONICAL_SURFACE ( 'NONE', #182, 2.499999999999995115, 0.7853981633974482790 ) ;
#168 = COORDINATED_UNIVERSAL_TIME_OFFSET ( 1, 0, .AHEAD. ) ;
#169 = EDGE_LOOP ( 'NONE', ( #116 ) ) ;
#170 = ORIENTED_EDGE ( 'NONE', *, *, #157, .F. ) ;
#171 = DIRECTION ( 'NONE',  ( 4.275831445896958607E-31, 1.000000000000000000, 1.224646799147353207E-16 ) ) ;
#172 = CARTESIAN_POINT ( 'NONE',  ( 2.094888803305880013E-13, 1.874699728327307504E-32, 60.00000000000000000 ) ) ;
#173 = VERTEX_POINT ( 'NONE', #4 ) ;
#174 = DIRECTION ( 'NONE',  ( -3.491481338843133355E-15, 1.224646799147353207E-16, -1.000000000000000000 ) ) ;
#175 = DIRECTION ( 'NONE',  ( -4.275831445896958607E-31, -1.000000000000000000, -1.224646799147353207E-16 ) ) ;
#176 = CARTESIAN_POINT ( 'NONE',  ( -4.152505048948013313E-30, -2.499999999999998668, -1.189324715200655750E-15 ) ) ;
#177 = DATE_AND_TIME ( #5, #115 ) ;
#178 = CLOSED_SHELL ( 'NONE', ( #146, #92, #187, #14, #183 ) ) ;
#179 = APPLICATION_PROTOCOL_DEFINITION ( 'international standard', 'config_control_design', 1994, #130 ) ;
#180 = ADVANCED_FACE ( 'NONE', ( #207 ), #33, .T. ) ;
#181 = COORDINATED_UNIVERSAL_TIME_OFFSET ( 1, 0, .AHEAD. ) ;
#182 = AXIS2_PLACEMENT_3D ( 'NONE', #143, #174, #68 ) ;
#183 = ADVANCED_FACE ( 'NONE', ( #90 ), #106, .F. ) ;
#184 = APPLICATION_CONTEXT ( 'configuration controlled 3d designs of mechanical parts and assemblies' ) ;
#185 = CC_DESIGN_SECURITY_CLASSIFICATION ( #103, ( #214 ) ) ;
#186 = ORIENTED_EDGE ( 'NONE', *, *, #22, .T. ) ;
#187 = ADVANCED_FACE ( 'NONE', ( #196 ), #87, .F. ) ;
#188 = FACE_BOUND ( 'NONE', #16, .T. ) ;
#189 = PERSON ( 'UNSPECIFIED', 'UNSPECIFIED', 'UNSPECIFIED', ('UNSPECIFIED'), ('UNSPECIFIED'), ('UNSPECIFIED') ) ;
#190 = CARTESIAN_POINT ( 'NONE',  ( -6.413839710158237013E-31, 0.0000000000000000000, -1.836996703606440502E-16 ) ) ;
#191 = PRODUCT ( '376937', '376937', '', ( #73 ) ) ;
#192 = DIRECTION ( 'NONE',  ( 3.491481338843133355E-15, -1.276467311168695266E-16, 1.000000000000000000 ) ) ;
#193 = FACE_BOUND ( 'NONE', #205, .T. ) ;
#194 = FACE_OUTER_BOUND ( 'NONE', #136, .T. ) ;
#195 = CIRCLE ( 'NONE', #9, 2.999999999999995559 ) ;
#196 = FACE_OUTER_BOUND ( 'NONE', #100, .T. ) ;
#197 = CALENDAR_DATE ( 2021, 8, 12 ) ;
#198 = DATE_AND_TIME ( #76, #84 ) ;
#199 = ORGANIZATION ( 'UNSPECIFIED', 'UNSPECIFIED', '' ) ;
#200 = EDGE_CURVE ( 'NONE', #93, #93, #122, .T. ) ;
#201 = PERSON_AND_ORGANIZATION ( #189, #199 ) ;
#202 = SHAPE_DEFINITION_REPRESENTATION ( #49, #89 ) ;
#203 = CC_DESIGN_APPROVAL ( #75, ( #214 ) ) ;
#204 = ORIENTED_EDGE ( 'NONE', *, *, #200, .F. ) ;
#205 = EDGE_LOOP ( 'NONE', ( #61 ) ) ;
#206 = EDGE_LOOP ( 'NONE', ( #170 ) ) ;
#207 = FACE_OUTER_BOUND ( 'NONE', #119, .T. ) ;
#208 = CC_DESIGN_DATE_AND_TIME_ASSIGNMENT ( #198, #8, ( #105 ) ) ;
#209 = FACE_OUTER_BOUND ( 'NONE', #219, .T. ) ;
#210 = CONICAL_SURFACE ( 'NONE', #18, 7.499999999999999112, 0.2617993877991501850 ) ;
#211 = VERTEX_POINT ( 'NONE', #114 ) ;
#212 = CARTESIAN_POINT ( 'NONE',  ( 4.189777606611760026E-14, -1.531760773402434319E-15, 12.00000000000000000 ) ) ;
#213 = CARTESIAN_POINT ( 'NONE',  ( 0.0000000000000000000, 0.0000000000000000000, 0.0000000000000000000 ) ) ;
#214 = PRODUCT_DEFINITION_FORMATION_WITH_SPECIFIED_SOURCE ( 'ANY', '', #191, .NOT_KNOWN. ) ;
#215 =( LENGTH_UNIT ( ) NAMED_UNIT ( * ) SI_UNIT ( .MILLI., .METRE. ) );
#216 = PERSON_AND_ORGANIZATION_ROLE ( 'creator' ) ;
#217 = DATE_AND_TIME ( #197, #153 ) ;
#218 = DATE_AND_TIME ( #77, #156 ) ;
#219 = EDGE_LOOP ( 'NONE', ( #152 ) ) ;
#220 = LOCAL_TIME ( 9, 40, 46.00000000000000000, #181 ) ;
#221 = DESIGN_CONTEXT ( 'detailed design', #130, 'design' ) ;
#222 = CARTESIAN_POINT ( 'NONE',  ( 1.070497048173233081E-13, -3.913681203143628758E-15, 30.66025403784432868 ) ) ;
#223 = CARTESIAN_POINT ( 'NONE',  ( 4.189777606611760026E-14, 2.249639673992779569E-32, 12.00000000000000000 ) ) ;
ENDSEC;
END-ISO-10303-21;
