ISO-10303-21;
HEADER;
FILE_DESCRIPTION (( 'STEP AP203' ),
    '1' );
FILE_NAME ('376936.step',
    '2021-12-08T08:40:45',
    ( '' ),
    ( '' ),
    'SwSTEP 2.0',
    'SolidWorks 2019',
    '' );
FILE_SCHEMA (( 'CONFIG_CONTROL_DESIGN' ));
ENDSEC;

DATA;
#1 = COORDINATED_UNIVERSAL_TIME_OFFSET ( 1, 0, .AHEAD. ) ;
#2 = EDGE_LOOP ( 'NONE', ( #137 ) ) ;
#3 = AXIS2_PLACEMENT_3D ( 'NONE', #185, #164, #135 ) ;
#4 = ADVANCED_FACE ( 'NONE', ( #162 ), #42, .F. ) ;
#5 = PRODUCT_DEFINITION_SHAPE ( 'NONE', 'NONE',  #192 ) ;
#6 = ADVANCED_FACE ( 'NONE', ( #81, #198 ), #133, .T. ) ;
#7 = ORIENTED_EDGE ( 'NONE', *, *, #97, .F. ) ;
#8 = APPROVAL_PERSON_ORGANIZATION ( #205, #114, #18 ) ;
#9 = CARTESIAN_POINT ( 'NONE',  ( 4.189777606611760026E-14, -1.999999999999999112, 12.00000000000000000 ) ) ;
#10 = ORIENTED_EDGE ( 'NONE', *, *, #190, .F. ) ;
#11 = PLANE ( 'NONE',  #220 ) ;
#12 = CARTESIAN_POINT ( 'NONE',  ( 3.526396152231565067E-13, 2.599999999999992983, 101.0000000000000000 ) ) ;
#13 = DIRECTION ( 'NONE',  ( 0.0000000000000000000, -1.000000000000000000, 0.0000000000000000000 ) ) ;
#14 = ADVANCED_FACE ( 'NONE', ( #28, #151 ), #117, .T. ) ;
#15 = FACE_OUTER_BOUND ( 'NONE', #145, .T. ) ;
#16 = CALENDAR_DATE ( 2021, 8, 12 ) ;
#17 = PERSON_AND_ORGANIZATION_ROLE ( 'creator' ) ;
#18 = APPROVAL_ROLE ( '' ) ;
#19 = PERSON_AND_ORGANIZATION ( #93, #161 ) ;
#20 = DIRECTION ( 'NONE',  ( 0.0000000000000000000, 0.0000000000000000000, 1.000000000000000000 ) ) ;
#21 = EDGE_LOOP ( 'NONE', ( #79 ) ) ;
#22 = AXIS2_PLACEMENT_3D ( 'NONE', #103, #212, #62 ) ;
#23 = AXIS2_PLACEMENT_3D ( 'NONE', #45, #119, #134 ) ;
#24 = EDGE_LOOP ( 'NONE', ( #38 ) ) ;
#25 = DIRECTION ( 'NONE',  ( 3.491481338843133355E-15, -1.276467311168695266E-16, 1.000000000000000000 ) ) ;
#26 = CARTESIAN_POINT ( 'NONE',  ( 4.189777606611760026E-14, 2.249639673992780117E-32, 12.00000000000000000 ) ) ;
#27 = DIRECTION ( 'NONE',  ( 3.491481338843133355E-15, -1.276467311168695266E-16, 1.000000000000000000 ) ) ;
#28 = FACE_OUTER_BOUND ( 'NONE', #55, .T. ) ;
#29 = DIRECTION ( 'NONE',  ( -4.456761796588770537E-31, -1.000000000000000000, -1.276467311168695266E-16 ) ) ;
#30 = DIRECTION ( 'NONE',  ( 0.0000000000000000000, -1.000000000000000000, 0.0000000000000000000 ) ) ;
#31 = PERSON_AND_ORGANIZATION ( #93, #161 ) ;
#32 = VERTEX_POINT ( 'NONE', #50 ) ;
#33 = CALENDAR_DATE ( 2021, 8, 12 ) ;
#34 = LOCAL_TIME ( 9, 40, 45.00000000000000000, #54 ) ;
#35 = ORIENTED_EDGE ( 'NONE', *, *, #125, .F. ) ;
#36 = CC_DESIGN_DATE_AND_TIME_ASSIGNMENT ( #139, #155, ( #192 ) ) ;
#37 = MANIFOLD_SOLID_BREP ( 'Corps-Déplacer/Copier1[2]', #124 ) ;
#38 = ORIENTED_EDGE ( 'NONE', *, *, #146, .F. ) ;
#39 = CONICAL_SURFACE ( 'NONE', #76, 2.600000000000005418, 0.7853981633974504994 ) ;
#40 = CARTESIAN_POINT ( 'NONE',  ( 4.189777606611760026E-14, -1.531760773402434319E-15, 12.00000000000000000 ) ) ;
#41 = CC_DESIGN_APPROVAL ( #114, ( #192 ) ) ;
#42 = PLANE ( 'NONE',  #61 ) ;
#43 = FACE_OUTER_BOUND ( 'NONE', #24, .T. ) ;
#44 = ADVANCED_FACE ( 'NONE', ( #132 ), #83, .T. ) ;
#45 = CARTESIAN_POINT ( 'NONE',  ( 3.512430226876192282E-13, -1.231994679942237389E-14, 100.6000000000000085 ) ) ;
#46 = FACE_BOUND ( 'NONE', #186, .T. ) ;
#47 = CC_DESIGN_PERSON_AND_ORGANIZATION_ASSIGNMENT ( #175, #140, ( #172 ) ) ;
#48 = AXIS2_PLACEMENT_3D ( 'NONE', #150, #25, #214 ) ;
#49 = CARTESIAN_POINT ( 'NONE',  ( 4.189777606611760026E-14, 2.249639673992780117E-32, 12.00000000000000000 ) ) ;
#50 = CARTESIAN_POINT ( 'NONE',  ( 5.492816181635876203E-14, -3.000000000000001332, 15.73205080756886964 ) ) ;
#51 = CIRCLE ( 'NONE', #131, 1.999999999999997335 ) ;
#52 = CALENDAR_DATE ( 2021, 8, 12 ) ;
#53 = CARTESIAN_POINT ( 'NONE',  ( 0.0000000000000000000, 0.0000000000000000000, 0.0000000000000000000 ) ) ;
#54 = COORDINATED_UNIVERSAL_TIME_OFFSET ( 1, 0, .AHEAD. ) ;
#55 = EDGE_LOOP ( 'NONE', ( #72 ) ) ;
#56 = EDGE_LOOP ( 'NONE', ( #209 ) ) ;
#57 = LOCAL_TIME ( 9, 40, 45.00000000000000000, #1 ) ;
#58 = ADVANCED_BREP_SHAPE_REPRESENTATION ( '376936', ( #183, #37, #176 ), #216 ) ;
#59 = EDGE_LOOP ( 'NONE', ( #35 ) ) ;
#60 = DIRECTION ( 'NONE',  ( 3.491481338843133355E-15, -1.276467311168695266E-16, 1.000000000000000000 ) ) ;
#61 = AXIS2_PLACEMENT_3D ( 'NONE', #26, #160, #199 ) ;
#62 = DIRECTION ( 'NONE',  ( 4.275831445896958607E-31, 1.000000000000000000, 1.224646799147353207E-16 ) ) ;
#63 = PLANE ( 'NONE',  #115 ) ;
#64 = APPROVAL ( #174, 'UNSPECIFIED' ) ;
#65 = CARTESIAN_POINT ( 'NONE',  ( -6.413839710158237013E-31, 0.0000000000000000000, -1.836996703606440502E-16 ) ) ;
#66 = DIRECTION ( 'NONE',  ( 3.491481338843133355E-15, -1.276467311168695266E-16, 1.000000000000000000 ) ) ;
#67 = LOCAL_TIME ( 9, 40, 45.00000000000000000, #170 ) ;
#68 = MECHANICAL_CONTEXT ( 'NONE', #177, 'mechanical' ) ;
#69 = COORDINATED_UNIVERSAL_TIME_OFFSET ( 1, 0, .AHEAD. ) ;
#70 = APPROVAL_STATUS ( 'not_yet_approved' ) ;
#71 = PERSON_AND_ORGANIZATION_ROLE ( 'design_supplier' ) ;
#72 = ORIENTED_EDGE ( 'NONE', *, *, #196, .T. ) ;
#73 = PERSON_AND_ORGANIZATION ( #93, #161 ) ;
#74 = ADVANCED_FACE ( 'NONE', ( #118, #46 ), #39, .T. ) ;
#75 = CC_DESIGN_PERSON_AND_ORGANIZATION_ASSIGNMENT ( #19, #17, ( #98 ) ) ;
#76 = AXIS2_PLACEMENT_3D ( 'NONE', #213, #153, #121 ) ;
#77 = AXIS2_PLACEMENT_3D ( 'NONE', #40, #100, #30 ) ;
#78 = VERTEX_POINT ( 'NONE', #12 ) ;
#79 = ORIENTED_EDGE ( 'NONE', *, *, #113, .T. ) ;
#80 = CARTESIAN_POINT ( 'NONE',  ( -4.275870630573523203E-31, 1.499773526796244679E-32, -1.224658022084772044E-16 ) ) ;
#81 = FACE_OUTER_BOUND ( 'NONE', #95, .T. ) ;
#82 = FACE_BOUND ( 'NONE', #2, .T. ) ;
#83 = PLANE ( 'NONE',  #144 ) ;
#84 = CIRCLE ( 'NONE', #23, 3.000000000000004885 ) ;
#85 = APPLICATION_PROTOCOL_DEFINITION ( 'international standard', 'config_control_design', 1994, #90 ) ;
#86 = CC_DESIGN_APPROVAL ( #64, ( #172 ) ) ;
#87 = APPROVAL_DATE_TIME ( #222, #64 ) ;
#88 = CALENDAR_DATE ( 2021, 8, 12 ) ;
#89 = APPROVAL_ROLE ( '' ) ;
#90 = APPLICATION_CONTEXT ( 'configuration controlled 3d designs of mechanical parts and assemblies' ) ;
#91 = COORDINATED_UNIVERSAL_TIME_OFFSET ( 1, 0, .AHEAD. ) ;
#92 = ADVANCED_FACE ( 'NONE', ( #43 ), #63, .F. ) ;
#93 = PERSON ( 'UNSPECIFIED', 'UNSPECIFIED', 'UNSPECIFIED', ('UNSPECIFIED'), ('UNSPECIFIED'), ('UNSPECIFIED') ) ;
#94 = ORIENTED_EDGE ( 'NONE', *, *, #190, .T. ) ;
#95 = EDGE_LOOP ( 'NONE', ( #122 ) ) ;
#96 = APPROVAL ( #70, 'UNSPECIFIED' ) ;
#97 = EDGE_CURVE ( 'NONE', #101, #101, #197, .T. ) ;
#98 = PRODUCT_DEFINITION_FORMATION_WITH_SPECIFIED_SOURCE ( 'ANY', '', #193, .NOT_KNOWN. ) ;
#99 = CARTESIAN_POINT ( 'NONE',  ( -7.237214027672697269E-32, -1.999999999999998224, -2.072820480853744888E-17 ) ) ;
#100 = DIRECTION ( 'NONE',  ( 3.491481338843133355E-15, -1.276467311168695266E-16, 1.000000000000000000 ) ) ;
#101 = VERTEX_POINT ( 'NONE', #99 ) ;
#102 = CC_DESIGN_SECURITY_CLASSIFICATION ( #172, ( #98 ) ) ;
#103 = CARTESIAN_POINT ( 'NONE',  ( 0.0000000000000000000, 0.0000000000000000000, 0.0000000000000000000 ) ) ;
#104 = CARTESIAN_POINT ( 'NONE',  ( 5.492816181635876203E-14, -2.008144859350673443E-15, 15.73205080756886964 ) ) ;
#105 = AXIS2_PLACEMENT_3D ( 'NONE', #215, #60, #130 ) ;
#106 = DESIGN_CONTEXT ( 'detailed design', #90, 'design' ) ;
#107 = PERSON_AND_ORGANIZATION ( #93, #161 ) ;
#108 = CIRCLE ( 'NONE', #77, 1.999999999999997335 ) ;
#109 = CARTESIAN_POINT ( 'NONE',  ( 3.512430226876192282E-13, 2.999999999999992895, 100.6000000000000085 ) ) ;
#110 =( LENGTH_UNIT ( ) NAMED_UNIT ( * ) SI_UNIT ( .MILLI., .METRE. ) );
#111 = SHAPE_DEFINITION_REPRESENTATION ( #5, #58 ) ;
#112 = APPROVAL_PERSON_ORGANIZATION ( #126, #64, #89 ) ;
#113 = EDGE_CURVE ( 'NONE', #163, #163, #51, .T. ) ;
#114 = APPROVAL ( #204, 'UNSPECIFIED' ) ;
#115 = AXIS2_PLACEMENT_3D ( 'NONE', #120, #180, #203 ) ;
#116 = CIRCLE ( 'NONE', #3, 2.600000000000005418 ) ;
#117 = CYLINDRICAL_SURFACE ( 'NONE', #22, 2.999999999999999112 ) ;
#118 = FACE_OUTER_BOUND ( 'NONE', #56, .T. ) ;
#119 = DIRECTION ( 'NONE',  ( -3.491481338843133355E-15, 1.224646799147353207E-16, -1.000000000000000000 ) ) ;
#120 = CARTESIAN_POINT ( 'NONE',  ( 3.526396152231565067E-13, 1.949687717460400385E-32, 101.0000000000000000 ) ) ;
#121 = DIRECTION ( 'NONE',  ( 0.0000000000000000000, 1.000000000000000000, 0.0000000000000000000 ) ) ;
#122 = ORIENTED_EDGE ( 'NONE', *, *, #97, .T. ) ;
#123 = PERSON_AND_ORGANIZATION_ROLE ( 'design_owner' ) ;
#124 = CLOSED_SHELL ( 'NONE', ( #44, #6, #159 ) ) ;
#125 = EDGE_CURVE ( 'NONE', #149, #149, #108, .T. ) ;
#126 = PERSON_AND_ORGANIZATION ( #93, #161 ) ;
#127 = EDGE_LOOP ( 'NONE', ( #143 ) ) ;
#128 = CIRCLE ( 'NONE', #178, 2.999999999999999112 ) ;
#129 = CC_DESIGN_PERSON_AND_ORGANIZATION_ASSIGNMENT ( #107, #71, ( #98 ) ) ;
#130 = DIRECTION ( 'NONE',  ( -4.456761796588770537E-31, -1.000000000000000000, -1.276467311168695266E-16 ) ) ;
#131 = AXIS2_PLACEMENT_3D ( 'NONE', #181, #27, #179 ) ;
#132 = FACE_OUTER_BOUND ( 'NONE', #21, .T. ) ;
#133 = CYLINDRICAL_SURFACE ( 'NONE', #187, 1.999999999999997780 ) ;
#134 = DIRECTION ( 'NONE',  ( 0.0000000000000000000, 1.000000000000000000, 0.0000000000000000000 ) ) ;
#135 = DIRECTION ( 'NONE',  ( 0.0000000000000000000, 1.000000000000000000, 0.0000000000000000000 ) ) ;
#136 = LOCAL_TIME ( 9, 40, 45.00000000000000000, #91 ) ;
#137 = ORIENTED_EDGE ( 'NONE', *, *, #125, .T. ) ;
#138 = CALENDAR_DATE ( 2021, 8, 12 ) ;
#139 = DATE_AND_TIME ( #16, #67 ) ;
#140 = PERSON_AND_ORGANIZATION_ROLE ( 'classification_officer' ) ;
#141 = APPROVAL_ROLE ( '' ) ;
#142 = DIRECTION ( 'NONE',  ( 1.000000000000000000, 0.0000000000000000000, 0.0000000000000000000 ) ) ;
#143 = ORIENTED_EDGE ( 'NONE', *, *, #113, .F. ) ;
#144 = AXIS2_PLACEMENT_3D ( 'NONE', #49, #152, #201 ) ;
#145 = EDGE_LOOP ( 'NONE', ( #94 ) ) ;
#146 = EDGE_CURVE ( 'NONE', #78, #78, #116, .T. ) ;
#147 = CONICAL_SURFACE ( 'NONE', #48, 6.999999999999998224, 0.2617993877991501850 ) ;
#148 = EDGE_LOOP ( 'NONE', ( #7 ) ) ;
#149 = VERTEX_POINT ( 'NONE', #9 ) ;
#150 = CARTESIAN_POINT ( 'NONE',  ( 1.070497048173233207E-13, -3.913681203143628758E-15, 30.66025403784433223 ) ) ;
#151 = FACE_OUTER_BOUND ( 'NONE', #211, .T. ) ;
#152 = DIRECTION ( 'NONE',  ( 3.491481338843133355E-15, -1.224646799147353207E-16, 1.000000000000000000 ) ) ;
#153 = DIRECTION ( 'NONE',  ( -3.491481338843133355E-15, 1.224646799147353207E-16, -1.000000000000000000 ) ) ;
#154 = APPROVAL_PERSON_ORGANIZATION ( #73, #96, #141 ) ;
#155 = DATE_TIME_ROLE ( 'creation_date' ) ;
#156 = DATE_AND_TIME ( #88, #136 ) ;
#157 = DATE_AND_TIME ( #52, #57 ) ;
#158 = APPROVAL_DATE_TIME ( #156, #114 ) ;
#159 = ADVANCED_FACE ( 'NONE', ( #200 ), #11, .F. ) ;
#160 = DIRECTION ( 'NONE',  ( 3.491481338843133355E-15, -1.224646799147353207E-16, 1.000000000000000000 ) ) ;
#161 = ORGANIZATION ( 'UNSPECIFIED', 'UNSPECIFIED', '' ) ;
#162 = FACE_OUTER_BOUND ( 'NONE', #59, .T. ) ;
#163 = VERTEX_POINT ( 'NONE', #165 ) ;
#164 = DIRECTION ( 'NONE',  ( -3.491481338843133355E-15, 1.224646799147353207E-16, -1.000000000000000000 ) ) ;
#165 = CARTESIAN_POINT ( 'NONE',  ( 4.189777606611760026E-14, -1.999999999999999112, 12.00000000000000000 ) ) ;
#166 = CC_DESIGN_PERSON_AND_ORGANIZATION_ASSIGNMENT ( #31, #221, ( #192 ) ) ;
#167 = DIRECTION ( 'NONE',  ( 3.491481338843133355E-15, -1.224646799147353207E-16, 1.000000000000000000 ) ) ;
#168 = CLOSED_SHELL ( 'NONE', ( #14, #74, #92, #195, #4 ) ) ;
#169 = DIRECTION ( 'NONE',  ( -3.491481338843133355E-15, 1.276467311168695266E-16, -1.000000000000000000 ) ) ;
#170 = COORDINATED_UNIVERSAL_TIME_OFFSET ( 1, 0, .AHEAD. ) ;
#171 = SECURITY_CLASSIFICATION_LEVEL ( 'unclassified' ) ;
#172 = SECURITY_CLASSIFICATION ( '', '', #171 ) ;
#173 = APPLICATION_PROTOCOL_DEFINITION ( 'international standard', 'config_control_design', 1994, #177 ) ;
#174 = APPROVAL_STATUS ( 'not_yet_approved' ) ;
#175 = PERSON_AND_ORGANIZATION ( #93, #161 ) ;
#176 = AXIS2_PLACEMENT_3D ( 'NONE', #53, #20, #142 ) ;
#177 = APPLICATION_CONTEXT ( 'configuration controlled 3d designs of mechanical parts and assemblies' ) ;
#178 = AXIS2_PLACEMENT_3D ( 'NONE', #104, #169, #13 ) ;
#179 = DIRECTION ( 'NONE',  ( 0.0000000000000000000, -1.000000000000000000, 0.0000000000000000000 ) ) ;
#180 = DIRECTION ( 'NONE',  ( -3.491481338843133355E-15, 1.224646799147353207E-16, -1.000000000000000000 ) ) ;
#181 = CARTESIAN_POINT ( 'NONE',  ( 4.189777606611760026E-14, -1.531760773402434319E-15, 12.00000000000000000 ) ) ;
#182 = PRODUCT_RELATED_PRODUCT_CATEGORY ( 'detail', '', ( #193 ) ) ;
#183 = MANIFOLD_SOLID_BREP ( 'Corps-Déplacer/Copier1[1]', #168 ) ;
#184 = DIRECTION ( 'NONE',  ( -4.275831445896958607E-31, -1.000000000000000000, -1.224646799147353207E-16 ) ) ;
#185 = CARTESIAN_POINT ( 'NONE',  ( 3.526396152231565067E-13, -1.236893267138826732E-14, 101.0000000000000000 ) ) ;
#186 = EDGE_LOOP ( 'NONE', ( #194 ) ) ;
#187 = AXIS2_PLACEMENT_3D ( 'NONE', #65, #66, #29 ) ;
#188 =( NAMED_UNIT ( * ) SI_UNIT ( $, .STERADIAN. ) SOLID_ANGLE_UNIT ( ) );
#189 = DATE_AND_TIME ( #138, #210 ) ;
#190 = EDGE_CURVE ( 'NONE', #32, #32, #128, .T. ) ;
#191 = DATE_TIME_ROLE ( 'classification_date' ) ;
#192 = PRODUCT_DEFINITION ( 'UNKNOWN', '', #98, #106 ) ;
#193 = PRODUCT ( '376936', '376936', '', ( #68 ) ) ;
#194 = ORIENTED_EDGE ( 'NONE', *, *, #146, .T. ) ;
#195 = ADVANCED_FACE ( 'NONE', ( #82, #15 ), #147, .T. ) ;
#196 = EDGE_CURVE ( 'NONE', #219, #219, #84, .T. ) ;
#197 = CIRCLE ( 'NONE', #105, 1.999999999999998224 ) ;
#198 = FACE_OUTER_BOUND ( 'NONE', #127, .T. ) ;
#199 = DIRECTION ( 'NONE',  ( -4.275831445896958607E-31, -1.000000000000000000, -1.224646799147353207E-16 ) ) ;
#200 = FACE_OUTER_BOUND ( 'NONE', #148, .T. ) ;
#201 = DIRECTION ( 'NONE',  ( -4.275831445896958607E-31, -1.000000000000000000, -1.224646799147353207E-16 ) ) ;
#202 = CC_DESIGN_APPROVAL ( #96, ( #98 ) ) ;
#203 = DIRECTION ( 'NONE',  ( 4.275831445896958607E-31, 1.000000000000000000, 1.224646799147353207E-16 ) ) ;
#204 = APPROVAL_STATUS ( 'not_yet_approved' ) ;
#205 = PERSON_AND_ORGANIZATION ( #93, #161 ) ;
#206 = UNCERTAINTY_MEASURE_WITH_UNIT (LENGTH_MEASURE( 1.000000000000000082E-05 ), #110, 'distance_accuracy_value', 'NONE');
#207 = CC_DESIGN_PERSON_AND_ORGANIZATION_ASSIGNMENT ( #217, #123, ( #193 ) ) ;
#208 =( NAMED_UNIT ( * ) PLANE_ANGLE_UNIT ( ) SI_UNIT ( $, .RADIAN. ) );
#209 = ORIENTED_EDGE ( 'NONE', *, *, #196, .F. ) ;
#210 = LOCAL_TIME ( 9, 40, 45.00000000000000000, #69 ) ;
#211 = EDGE_LOOP ( 'NONE', ( #10 ) ) ;
#212 = DIRECTION ( 'NONE',  ( -3.491481338843133355E-15, 1.224646799147353207E-16, -1.000000000000000000 ) ) ;
#213 = CARTESIAN_POINT ( 'NONE',  ( 3.526396152231565067E-13, -1.236893267138826732E-14, 101.0000000000000000 ) ) ;
#214 = DIRECTION ( 'NONE',  ( 0.0000000000000000000, -1.000000000000000000, 0.0000000000000000000 ) ) ;
#215 = CARTESIAN_POINT ( 'NONE',  ( 8.189802190410263574E-31, -5.339015077269665713E-32, 2.345652574252013916E-16 ) ) ;
#216 =( GEOMETRIC_REPRESENTATION_CONTEXT ( 3 ) GLOBAL_UNCERTAINTY_ASSIGNED_CONTEXT ( ( #206 ) ) GLOBAL_UNIT_ASSIGNED_CONTEXT ( ( #110, #208, #188 ) ) REPRESENTATION_CONTEXT ( 'NONE', 'WORKASPACE' ) );
#217 = PERSON_AND_ORGANIZATION ( #93, #161 ) ;
#218 = APPROVAL_DATE_TIME ( #157, #96 ) ;
#219 = VERTEX_POINT ( 'NONE', #109 ) ;
#220 = AXIS2_PLACEMENT_3D ( 'NONE', #80, #167, #184 ) ;
#221 = PERSON_AND_ORGANIZATION_ROLE ( 'creator' ) ;
#222 = DATE_AND_TIME ( #33, #34 ) ;
#223 = CC_DESIGN_DATE_AND_TIME_ASSIGNMENT ( #189, #191, ( #172 ) ) ;
ENDSEC;
END-ISO-10303-21;
