ISO-10303-21;
HEADER;
FILE_DESCRIPTION (( 'STEP AP203' ),
    '1' );
FILE_NAME ('376935.step',
    '2021-12-08T08:40:44',
    ( '' ),
    ( '' ),
    'SwSTEP 2.0',
    'SolidWorks 2019',
    '' );
FILE_SCHEMA (( 'CONFIG_CONTROL_DESIGN' ));
ENDSEC;

DATA;
#1 = AXIS2_PLACEMENT_3D ( 'NONE', #59, #116, #179 ) ;
#2 = DATE_TIME_ROLE ( 'classification_date' ) ;
#3 = ORIENTED_EDGE ( 'NONE', *, *, #103, .F. ) ;
#4 = UNCERTAINTY_MEASURE_WITH_UNIT (LENGTH_MEASURE( 1.000000000000000082E-05 ), #75, 'distance_accuracy_value', 'NONE');
#5 = EDGE_LOOP ( 'NONE', ( #143 ) ) ;
#6 = DIRECTION ( 'NONE',  ( 4.275831445896958607E-31, 1.000000000000000000, 1.224646799147352961E-16 ) ) ;
#7 = DIRECTION ( 'NONE',  ( 3.491481338843133355E-15, -1.224646799147353207E-16, 1.000000000000000000 ) ) ;
#8 = FACE_OUTER_BOUND ( 'NONE', #39, .T. ) ;
#9 = CC_DESIGN_APPROVAL ( #51, ( #123 ) ) ;
#10 = DIRECTION ( 'NONE',  ( -3.491481338843133355E-15, 1.224646799147353207E-16, -1.000000000000000000 ) ) ;
#11 = CARTESIAN_POINT ( 'NONE',  ( -2.137876538271898504E-31, 1.999999999999994005, -6.123121766362532060E-17 ) ) ;
#12 =( GEOMETRIC_REPRESENTATION_CONTEXT ( 3 ) GLOBAL_UNCERTAINTY_ASSIGNED_CONTEXT ( ( #4 ) ) GLOBAL_UNIT_ASSIGNED_CONTEXT ( ( #75, #201, #166 ) ) REPRESENTATION_CONTEXT ( 'NONE', 'WORKASPACE' ) );
#13 = VERTEX_POINT ( 'NONE', #11 ) ;
#14 = APPLICATION_CONTEXT ( 'configuration controlled 3d designs of mechanical parts and assemblies' ) ;
#15 = PRODUCT_DEFINITION ( 'UNKNOWN', '', #46, #35 ) ;
#16 = PERSON_AND_ORGANIZATION_ROLE ( 'creator' ) ;
#17 = CLOSED_SHELL ( 'NONE', ( #111, #52, #78, #24 ) ) ;
#18 = MANIFOLD_SOLID_BREP ( 'Corps-Déplacer/Copier1[1]', #17 ) ;
#19 = CALENDAR_DATE ( 2021, 8, 12 ) ;
#20 = APPROVAL_PERSON_ORGANIZATION ( #106, #44, #165 ) ;
#21 = CC_DESIGN_APPROVAL ( #124, ( #15 ) ) ;
#22 = CARTESIAN_POINT ( 'NONE',  ( -5.344769715032894940E-31, 1.874692856260121358E-32, -1.530802887465476112E-16 ) ) ;
#23 = FACE_OUTER_BOUND ( 'NONE', #83, .T. ) ;
#24 = ADVANCED_FACE ( 'NONE', ( #117 ), #45, .F. ) ;
#25 = DIRECTION ( 'NONE',  ( 0.0000000000000000000, 1.000000000000000000, 0.0000000000000000000 ) ) ;
#26 = CARTESIAN_POINT ( 'NONE',  ( 2.080922877950507480E-13, 1.999999999999994005, 59.60000000000000142 ) ) ;
#27 = CIRCLE ( 'NONE', #181, 1.999999999999997113 ) ;
#28 = FACE_OUTER_BOUND ( 'NONE', #162, .T. ) ;
#29 = COORDINATED_UNIVERSAL_TIME_OFFSET ( 1, 0, .AHEAD. ) ;
#30 = DATE_AND_TIME ( #48, #130 ) ;
#31 = CIRCLE ( 'NONE', #176, 2.000000000000001332 ) ;
#32 = PERSON_AND_ORGANIZATION ( #129, #110 ) ;
#33 = PERSON_AND_ORGANIZATION ( #129, #110 ) ;
#34 = CARTESIAN_POINT ( 'NONE',  ( 8.728703347107833388E-14, 1.999999999999994005, 25.00000000000000000 ) ) ;
#35 = DESIGN_CONTEXT ( 'detailed design', #184, 'design' ) ;
#36 = PERSON_AND_ORGANIZATION ( #129, #110 ) ;
#37 = CC_DESIGN_DATE_AND_TIME_ASSIGNMENT ( #168, #105, ( #15 ) ) ;
#38 = CIRCLE ( 'NONE', #131, 1.999999999999997113 ) ;
#39 = EDGE_LOOP ( 'NONE', ( #158 ) ) ;
#40 = DIRECTION ( 'NONE',  ( 4.275831445896958607E-31, 1.000000000000000000, 1.224646799147353207E-16 ) ) ;
#41 = CARTESIAN_POINT ( 'NONE',  ( 0.0000000000000000000, 0.0000000000000000000, 0.0000000000000000000 ) ) ;
#42 = FACE_OUTER_BOUND ( 'NONE', #72, .T. ) ;
#43 = DIRECTION ( 'NONE',  ( -3.491481338843133355E-15, 1.224646799147353207E-16, -1.000000000000000000 ) ) ;
#44 = APPROVAL ( #182, 'UNSPECIFIED' ) ;
#45 = PLANE ( 'NONE',  #153 ) ;
#46 = PRODUCT_DEFINITION_FORMATION_WITH_SPECIFIED_SOURCE ( 'ANY', '', #120, .NOT_KNOWN. ) ;
#47 = PERSON_AND_ORGANIZATION_ROLE ( 'creator' ) ;
#48 = CALENDAR_DATE ( 2021, 8, 12 ) ;
#49 = VERTEX_POINT ( 'NONE', #34 ) ;
#50 = PERSON_AND_ORGANIZATION_ROLE ( 'design_owner' ) ;
#51 = APPROVAL ( #203, 'UNSPECIFIED' ) ;
#52 = ADVANCED_FACE ( 'NONE', ( #28, #147 ), #69, .T. ) ;
#53 = ORIENTED_EDGE ( 'NONE', *, *, #76, .T. ) ;
#54 = CIRCLE ( 'NONE', #170, 1.600000000000001421 ) ;
#55 = DIRECTION ( 'NONE',  ( 3.491481338843133355E-15, -1.224646799147353207E-16, 1.000000000000000000 ) ) ;
#56 = DIRECTION ( 'NONE',  ( -3.491481338843133355E-15, 1.224646799147353207E-16, -1.000000000000000000 ) ) ;
#57 = CARTESIAN_POINT ( 'NONE',  ( 8.728703347107833388E-14, 1.499759782661850766E-32, 25.00000000000000000 ) ) ;
#58 = AXIS2_PLACEMENT_3D ( 'NONE', #187, #136, #135 ) ;
#59 = CARTESIAN_POINT ( 'NONE',  ( 8.728703347107833388E-14, 1.499759782661850766E-32, 25.00000000000000000 ) ) ;
#60 = CARTESIAN_POINT ( 'NONE',  ( -1.068953943006578988E-30, 3.749385712520242717E-32, -3.061605774930952225E-16 ) ) ;
#61 = AXIS2_PLACEMENT_3D ( 'NONE', #22, #7, #175 ) ;
#62 = APPLICATION_PROTOCOL_DEFINITION ( 'international standard', 'config_control_design', 1994, #14 ) ;
#63 = CALENDAR_DATE ( 2021, 8, 12 ) ;
#64 = AXIS2_PLACEMENT_3D ( 'NONE', #60, #92, #160 ) ;
#65 = VERTEX_POINT ( 'NONE', #77 ) ;
#66 = SHAPE_DEFINITION_REPRESENTATION ( #161, #134 ) ;
#67 = EDGE_CURVE ( 'NONE', #101, #101, #31, .T. ) ;
#68 = CARTESIAN_POINT ( 'NONE',  ( 0.0000000000000000000, 0.0000000000000000000, 0.0000000000000000000 ) ) ;
#69 = CYLINDRICAL_SURFACE ( 'NONE', #163, 1.999999999999999112 ) ;
#70 = FACE_BOUND ( 'NONE', #99, .T. ) ;
#71 = ADVANCED_FACE ( 'NONE', ( #23 ), #132, .F. ) ;
#72 = EDGE_LOOP ( 'NONE', ( #87 ) ) ;
#73 = APPROVAL_PERSON_ORGANIZATION ( #36, #51, #192 ) ;
#74 = FACE_OUTER_BOUND ( 'NONE', #97, .T. ) ;
#75 =( LENGTH_UNIT ( ) NAMED_UNIT ( * ) SI_UNIT ( .MILLI., .METRE. ) );
#76 = EDGE_CURVE ( 'NONE', #49, #49, #38, .T. ) ;
#77 = CARTESIAN_POINT ( 'NONE',  ( 2.094888803305880013E-13, 1.599999999999994094, 60.00000000000000000 ) ) ;
#78 = ADVANCED_FACE ( 'NONE', ( #74, #70 ), #94, .T. ) ;
#79 = COORDINATED_UNIVERSAL_TIME_OFFSET ( 1, 0, .AHEAD. ) ;
#80 = LOCAL_TIME ( 9, 40, 44.00000000000000000, #104 ) ;
#81 = DATE_AND_TIME ( #19, #96 ) ;
#82 = CC_DESIGN_PERSON_AND_ORGANIZATION_ASSIGNMENT ( #202, #50, ( #120 ) ) ;
#83 = EDGE_LOOP ( 'NONE', ( #174 ) ) ;
#84 = APPROVAL_DATE_TIME ( #81, #51 ) ;
#85 = ORIENTED_EDGE ( 'NONE', *, *, #67, .F. ) ;
#86 = DIRECTION ( 'NONE',  ( -4.275831445896958607E-31, -1.000000000000000000, -1.224646799147353207E-16 ) ) ;
#87 = ORIENTED_EDGE ( 'NONE', *, *, #88, .F. ) ;
#88 = EDGE_CURVE ( 'NONE', #152, #152, #27, .T. ) ;
#89 = PLANE ( 'NONE',  #1 ) ;
#90 = ORIENTED_EDGE ( 'NONE', *, *, #76, .F. ) ;
#91 = CIRCLE ( 'NONE', #64, 1.999999999999994005 ) ;
#92 = DIRECTION ( 'NONE',  ( -3.491481338843133355E-15, 1.224646799147353207E-16, -1.000000000000000000 ) ) ;
#93 = APPROVAL_DATE_TIME ( #118, #124 ) ;
#94 = CONICAL_SURFACE ( 'NONE', #190, 1.600000000000001421, 0.7853981633974512766 ) ;
#95 = PERSON_AND_ORGANIZATION_ROLE ( 'classification_officer' ) ;
#96 = LOCAL_TIME ( 9, 40, 44.00000000000000000, #188 ) ;
#97 = EDGE_LOOP ( 'NONE', ( #85 ) ) ;
#98 = CARTESIAN_POINT ( 'NONE',  ( 8.728703347107833388E-14, -3.061616997868383043E-15, 25.00000000000000000 ) ) ;
#99 = EDGE_LOOP ( 'NONE', ( #191 ) ) ;
#100 = DIRECTION ( 'NONE',  ( -3.491481338843133355E-15, 1.224646799147353207E-16, -1.000000000000000000 ) ) ;
#101 = VERTEX_POINT ( 'NONE', #26 ) ;
#102 = CARTESIAN_POINT ( 'NONE',  ( 8.728703347107833388E-14, -3.061616997868383043E-15, 25.00000000000000000 ) ) ;
#103 = EDGE_CURVE ( 'NONE', #13, #13, #91, .T. ) ;
#104 = COORDINATED_UNIVERSAL_TIME_OFFSET ( 1, 0, .AHEAD. ) ;
#105 = DATE_TIME_ROLE ( 'creation_date' ) ;
#106 = PERSON_AND_ORGANIZATION ( #129, #110 ) ;
#107 = CC_DESIGN_PERSON_AND_ORGANIZATION_ASSIGNMENT ( #32, #16, ( #46 ) ) ;
#108 = LOCAL_TIME ( 9, 40, 44.00000000000000000, #185 ) ;
#109 = SECURITY_CLASSIFICATION_LEVEL ( 'unclassified' ) ;
#110 = ORGANIZATION ( 'UNSPECIFIED', 'UNSPECIFIED', '' ) ;
#111 = ADVANCED_FACE ( 'NONE', ( #195 ), #180, .F. ) ;
#112 = ADVANCED_FACE ( 'NONE', ( #115, #8 ), #178, .T. ) ;
#113 = DIRECTION ( 'NONE',  ( 0.0000000000000000000, 1.000000000000000000, 0.0000000000000000000 ) ) ;
#114 = DIRECTION ( 'NONE',  ( 0.0000000000000000000, 1.000000000000000000, 0.0000000000000000000 ) ) ;
#115 = FACE_OUTER_BOUND ( 'NONE', #159, .T. ) ;
#116 = DIRECTION ( 'NONE',  ( 3.491481338843133355E-15, -1.224646799147353207E-16, 1.000000000000000000 ) ) ;
#117 = FACE_OUTER_BOUND ( 'NONE', #5, .T. ) ;
#118 = DATE_AND_TIME ( #122, #108 ) ;
#119 = CC_DESIGN_PERSON_AND_ORGANIZATION_ASSIGNMENT ( #33, #95, ( #123 ) ) ;
#120 = PRODUCT ( '376935', '376935', '', ( #121 ) ) ;
#121 = MECHANICAL_CONTEXT ( 'NONE', #14, 'mechanical' ) ;
#122 = CALENDAR_DATE ( 2021, 8, 12 ) ;
#123 = SECURITY_CLASSIFICATION ( '', '', #109 ) ;
#124 = APPROVAL ( #199, 'UNSPECIFIED' ) ;
#125 = EDGE_LOOP ( 'NONE', ( #146 ) ) ;
#126 = CARTESIAN_POINT ( 'NONE',  ( 2.094888803305880013E-13, -7.347880794884118356E-15, 60.00000000000000000 ) ) ;
#127 = DIRECTION ( 'NONE',  ( 0.0000000000000000000, 1.000000000000000000, 0.0000000000000000000 ) ) ;
#128 = DIRECTION ( 'NONE',  ( 0.0000000000000000000, 1.000000000000000000, 0.0000000000000000000 ) ) ;
#129 = PERSON ( 'UNSPECIFIED', 'UNSPECIFIED', 'UNSPECIFIED', ('UNSPECIFIED'), ('UNSPECIFIED'), ('UNSPECIFIED') ) ;
#130 = LOCAL_TIME ( 9, 40, 44.00000000000000000, #29 ) ;
#131 = AXIS2_PLACEMENT_3D ( 'NONE', #102, #10, #114 ) ;
#132 = PLANE ( 'NONE',  #61 ) ;
#133 = DIRECTION ( 'NONE',  ( -3.491481338843133355E-15, 1.224646799147353207E-16, -1.000000000000000000 ) ) ;
#134 = ADVANCED_BREP_SHAPE_REPRESENTATION ( '376935', ( #18, #150, #58 ), #12 ) ;
#135 = DIRECTION ( 'NONE',  ( 1.000000000000000000, 0.0000000000000000000, 0.0000000000000000000 ) ) ;
#136 = DIRECTION ( 'NONE',  ( 0.0000000000000000000, 0.0000000000000000000, 1.000000000000000000 ) ) ;
#137 = PERSON_AND_ORGANIZATION ( #129, #110 ) ;
#138 = APPLICATION_PROTOCOL_DEFINITION ( 'international standard', 'config_control_design', 1994, #184 ) ;
#139 = CALENDAR_DATE ( 2021, 8, 12 ) ;
#140 = AXIS2_PLACEMENT_3D ( 'NONE', #57, #55, #86 ) ;
#141 = AXIS2_PLACEMENT_3D ( 'NONE', #68, #144, #6 ) ;
#142 = EDGE_CURVE ( 'NONE', #65, #65, #54, .T. ) ;
#143 = ORIENTED_EDGE ( 'NONE', *, *, #142, .F. ) ;
#144 = DIRECTION ( 'NONE',  ( -3.491481338843133355E-15, 1.224646799147353207E-16, -1.000000000000000000 ) ) ;
#145 = CC_DESIGN_DATE_AND_TIME_ASSIGNMENT ( #189, #2, ( #123 ) ) ;
#146 = ORIENTED_EDGE ( 'NONE', *, *, #67, .T. ) ;
#147 = FACE_OUTER_BOUND ( 'NONE', #125, .T. ) ;
#148 = ADVANCED_FACE ( 'NONE', ( #42 ), #89, .T. ) ;
#149 = CARTESIAN_POINT ( 'NONE',  ( 2.094888803305880013E-13, 1.199807826129476233E-32, 60.00000000000000000 ) ) ;
#150 = MANIFOLD_SOLID_BREP ( 'Corps-Déplacer/Copier1[2]', #172 ) ;
#151 = CARTESIAN_POINT ( 'NONE',  ( 8.728703347107833388E-14, 1.999999999999994005, 25.00000000000000000 ) ) ;
#152 = VERTEX_POINT ( 'NONE', #151 ) ;
#153 = AXIS2_PLACEMENT_3D ( 'NONE', #149, #194, #164 ) ;
#154 = PERSON_AND_ORGANIZATION ( #129, #110 ) ;
#155 = PERSON_AND_ORGANIZATION_ROLE ( 'design_supplier' ) ;
#156 = CC_DESIGN_APPROVAL ( #44, ( #46 ) ) ;
#157 = LOCAL_TIME ( 9, 40, 44.00000000000000000, #79 ) ;
#158 = ORIENTED_EDGE ( 'NONE', *, *, #88, .T. ) ;
#159 = EDGE_LOOP ( 'NONE', ( #3 ) ) ;
#160 = DIRECTION ( 'NONE',  ( 4.275831445896959482E-31, 1.000000000000000000, 1.224646799147353207E-16 ) ) ;
#161 = PRODUCT_DEFINITION_SHAPE ( 'NONE', 'NONE',  #15 ) ;
#162 = EDGE_LOOP ( 'NONE', ( #90 ) ) ;
#163 = AXIS2_PLACEMENT_3D ( 'NONE', #41, #56, #40 ) ;
#164 = DIRECTION ( 'NONE',  ( 4.275831445896958607E-31, 1.000000000000000000, 1.224646799147353207E-16 ) ) ;
#165 = APPROVAL_ROLE ( '' ) ;
#166 =( NAMED_UNIT ( * ) SI_UNIT ( $, .STERADIAN. ) SOLID_ANGLE_UNIT ( ) );
#167 = APPROVAL_DATE_TIME ( #30, #44 ) ;
#168 = DATE_AND_TIME ( #63, #80 ) ;
#169 = APPROVAL_ROLE ( '' ) ;
#170 = AXIS2_PLACEMENT_3D ( 'NONE', #126, #193, #113 ) ;
#171 = EDGE_LOOP ( 'NONE', ( #53 ) ) ;
#172 = CLOSED_SHELL ( 'NONE', ( #71, #112, #148 ) ) ;
#173 = PRODUCT_RELATED_PRODUCT_CATEGORY ( 'detail', '', ( #120 ) ) ;
#174 = ORIENTED_EDGE ( 'NONE', *, *, #103, .T. ) ;
#175 = DIRECTION ( 'NONE',  ( -4.275831445896958607E-31, -1.000000000000000000, -1.224646799147353207E-16 ) ) ;
#176 = AXIS2_PLACEMENT_3D ( 'NONE', #198, #43, #25 ) ;
#177 = CC_DESIGN_PERSON_AND_ORGANIZATION_ASSIGNMENT ( #183, #47, ( #15 ) ) ;
#178 = CYLINDRICAL_SURFACE ( 'NONE', #141, 1.999999999999995781 ) ;
#179 = DIRECTION ( 'NONE',  ( -4.275831445896958607E-31, -1.000000000000000000, -1.224646799147353207E-16 ) ) ;
#180 = PLANE ( 'NONE',  #140 ) ;
#181 = AXIS2_PLACEMENT_3D ( 'NONE', #98, #133, #128 ) ;
#182 = APPROVAL_STATUS ( 'not_yet_approved' ) ;
#183 = PERSON_AND_ORGANIZATION ( #129, #110 ) ;
#184 = APPLICATION_CONTEXT ( 'configuration controlled 3d designs of mechanical parts and assemblies' ) ;
#185 = COORDINATED_UNIVERSAL_TIME_OFFSET ( 1, 0, .AHEAD. ) ;
#186 = CC_DESIGN_PERSON_AND_ORGANIZATION_ASSIGNMENT ( #154, #155, ( #46 ) ) ;
#187 = CARTESIAN_POINT ( 'NONE',  ( 0.0000000000000000000, 0.0000000000000000000, 0.0000000000000000000 ) ) ;
#188 = COORDINATED_UNIVERSAL_TIME_OFFSET ( 1, 0, .AHEAD. ) ;
#189 = DATE_AND_TIME ( #139, #157 ) ;
#190 = AXIS2_PLACEMENT_3D ( 'NONE', #197, #100, #127 ) ;
#191 = ORIENTED_EDGE ( 'NONE', *, *, #142, .T. ) ;
#192 = APPROVAL_ROLE ( '' ) ;
#193 = DIRECTION ( 'NONE',  ( -3.491481338843133355E-15, 1.224646799147353207E-16, -1.000000000000000000 ) ) ;
#194 = DIRECTION ( 'NONE',  ( -3.491481338843133355E-15, 1.224646799147353207E-16, -1.000000000000000000 ) ) ;
#195 = FACE_OUTER_BOUND ( 'NONE', #171, .T. ) ;
#196 = APPROVAL_PERSON_ORGANIZATION ( #137, #124, #169 ) ;
#197 = CARTESIAN_POINT ( 'NONE',  ( 2.094888803305880013E-13, -7.347880794884118356E-15, 60.00000000000000000 ) ) ;
#198 = CARTESIAN_POINT ( 'NONE',  ( 2.080922877950507480E-13, -7.298894922918224927E-15, 59.60000000000000142 ) ) ;
#199 = APPROVAL_STATUS ( 'not_yet_approved' ) ;
#200 = CC_DESIGN_SECURITY_CLASSIFICATION ( #123, ( #46 ) ) ;
#201 =( NAMED_UNIT ( * ) PLANE_ANGLE_UNIT ( ) SI_UNIT ( $, .RADIAN. ) );
#202 = PERSON_AND_ORGANIZATION ( #129, #110 ) ;
#203 = APPROVAL_STATUS ( 'not_yet_approved' ) ;
ENDSEC;
END-ISO-10303-21;
