ISO-10303-21;
HEADER;
FILE_DESCRIPTION (( 'STEP AP203' ),
    '1' );
FILE_NAME ('376934.step',
    '2021-12-08T08:40:44',
    ( '' ),
    ( '' ),
    'SwSTEP 2.0',
    'SolidWorks 2019',
    '' );
FILE_SCHEMA (( 'CONFIG_CONTROL_DESIGN' ));
ENDSEC;

DATA;
#1 = DIRECTION ( 'NONE',  ( 4.275831445896959482E-31, 1.000000000000000000, 1.224646799147353207E-16 ) ) ;
#2 = VERTEX_POINT ( 'NONE', #66 ) ;
#3 = CARTESIAN_POINT ( 'NONE',  ( 2.793185071074506684E-14, 1.499759782661852681E-32, 8.000000000000000000 ) ) ;
#4 = PERSON_AND_ORGANIZATION ( #70, #97 ) ;
#5 = ADVANCED_FACE ( 'NONE', ( #181 ), #10, .F. ) ;
#6 = CLOSED_SHELL ( 'NONE', ( #5, #193, #158 ) ) ;
#7 = PERSON_AND_ORGANIZATION ( #70, #97 ) ;
#8 = PLANE ( 'NONE',  #86 ) ;
#9 = EDGE_LOOP ( 'NONE', ( #12 ) ) ;
#10 = PLANE ( 'NONE',  #81 ) ;
#11 = ADVANCED_FACE ( 'NONE', ( #145 ), #37, .F. ) ;
#12 = ORIENTED_EDGE ( 'NONE', *, *, #142, .T. ) ;
#13 = DATE_AND_TIME ( #150, #51 ) ;
#14 = PRODUCT_DEFINITION_FORMATION_WITH_SPECIFIED_SOURCE ( 'ANY', '', #125, .NOT_KNOWN. ) ;
#15 = LOCAL_TIME ( 9, 40, 44.00000000000000000, #157 ) ;
#16 = DIRECTION ( 'NONE',  ( 1.000000000000000000, 0.0000000000000000000, 0.0000000000000000000 ) ) ;
#17 = EDGE_CURVE ( 'NONE', #2, #2, #199, .T. ) ;
#18 = CARTESIAN_POINT ( 'NONE',  ( 1.745740669421566678E-13, 1.599999999999994094, 50.00000000000000000 ) ) ;
#19 = AXIS2_PLACEMENT_3D ( 'NONE', #131, #195, #87 ) ;
#20 = VERTEX_POINT ( 'NONE', #78 ) ;
#21 = MECHANICAL_CONTEXT ( 'NONE', #68, 'mechanical' ) ;
#22 = PERSON_AND_ORGANIZATION_ROLE ( 'design_supplier' ) ;
#23 = PERSON_AND_ORGANIZATION_ROLE ( 'classification_officer' ) ;
#24 = APPLICATION_CONTEXT ( 'configuration controlled 3d designs of mechanical parts and assemblies' ) ;
#25 = AXIS2_PLACEMENT_3D ( 'NONE', #64, #170, #16 ) ;
#26 = PERSON_AND_ORGANIZATION ( #70, #97 ) ;
#27 = UNCERTAINTY_MEASURE_WITH_UNIT (LENGTH_MEASURE( 1.000000000000000082E-05 ), #156, 'distance_accuracy_value', 'NONE');
#28 = CIRCLE ( 'NONE', #53, 1.600000000000000089 ) ;
#29 = LOCAL_TIME ( 9, 40, 44.00000000000000000, #188 ) ;
#30 = CALENDAR_DATE ( 2021, 8, 12 ) ;
#31 = DIRECTION ( 'NONE',  ( -3.491481338843133355E-15, 1.224646799147353207E-16, -1.000000000000000000 ) ) ;
#32 = CARTESIAN_POINT ( 'NONE',  ( 2.793185071074506684E-14, 1.499759782661852681E-32, 8.000000000000000000 ) ) ;
#33 = CIRCLE ( 'NONE', #143, 1.999999999999994893 ) ;
#34 = CARTESIAN_POINT ( 'NONE',  ( 1.745740669421566678E-13, 1.199807826129477054E-32, 50.00000000000000000 ) ) ;
#35 =( GEOMETRIC_REPRESENTATION_CONTEXT ( 3 ) GLOBAL_UNCERTAINTY_ASSIGNED_CONTEXT ( ( #27 ) ) GLOBAL_UNIT_ASSIGNED_CONTEXT ( ( #156, #141, #77 ) ) REPRESENTATION_CONTEXT ( 'NONE', 'WORKASPACE' ) );
#36 = ORIENTED_EDGE ( 'NONE', *, *, #142, .F. ) ;
#37 = PLANE ( 'NONE',  #180 ) ;
#38 = CARTESIAN_POINT ( 'NONE',  ( -2.137876538271898504E-31, 1.999999999999994005, -6.123121766362532060E-17 ) ) ;
#39 = CARTESIAN_POINT ( 'NONE',  ( 1.731774744066194397E-13, 1.999999999999994005, 49.60000000000000853 ) ) ;
#40 = ADVANCED_BREP_SHAPE_REPRESENTATION ( '376934', ( #126, #62, #25 ), #35 ) ;
#41 = CARTESIAN_POINT ( 'NONE',  ( 0.0000000000000000000, 0.0000000000000000000, 0.0000000000000000000 ) ) ;
#42 = FACE_OUTER_BOUND ( 'NONE', #47, .T. ) ;
#43 = DATE_TIME_ROLE ( 'creation_date' ) ;
#44 = APPROVAL_PERSON_ORGANIZATION ( #49, #98, #169 ) ;
#45 = DATE_AND_TIME ( #191, #29 ) ;
#46 = CARTESIAN_POINT ( 'NONE',  ( 1.745740669421566678E-13, -6.123233995736766085E-15, 50.00000000000000000 ) ) ;
#47 = EDGE_LOOP ( 'NONE', ( #84 ) ) ;
#48 = ORIENTED_EDGE ( 'NONE', *, *, #54, .T. ) ;
#49 = PERSON_AND_ORGANIZATION ( #70, #97 ) ;
#50 = PLANE ( 'NONE',  #176 ) ;
#51 = LOCAL_TIME ( 9, 40, 44.00000000000000000, #185 ) ;
#52 = DIRECTION ( 'NONE',  ( -3.491481338843133355E-15, 1.224646799147353207E-16, -1.000000000000000000 ) ) ;
#53 = AXIS2_PLACEMENT_3D ( 'NONE', #46, #74, #100 ) ;
#54 = EDGE_CURVE ( 'NONE', #124, #124, #28, .T. ) ;
#55 = CIRCLE ( 'NONE', #19, 1.999999999999994005 ) ;
#56 = APPROVAL_ROLE ( '' ) ;
#57 = EDGE_LOOP ( 'NONE', ( #166 ) ) ;
#58 = CARTESIAN_POINT ( 'NONE',  ( 1.745740669421566678E-13, -6.123233995736766085E-15, 50.00000000000000000 ) ) ;
#59 = CC_DESIGN_APPROVAL ( #98, ( #202 ) ) ;
#60 = APPROVAL ( #83, 'UNSPECIFIED' ) ;
#61 = FACE_OUTER_BOUND ( 'NONE', #104, .T. ) ;
#62 = MANIFOLD_SOLID_BREP ( 'Corps-Déplacer/Copier1[2]', #6 ) ;
#63 = EDGE_LOOP ( 'NONE', ( #168 ) ) ;
#64 = CARTESIAN_POINT ( 'NONE',  ( 0.0000000000000000000, 0.0000000000000000000, 0.0000000000000000000 ) ) ;
#65 = PERSON_AND_ORGANIZATION ( #70, #97 ) ;
#66 = CARTESIAN_POINT ( 'NONE',  ( 2.793185071074506684E-14, 1.999999999999994005, 8.000000000000000000 ) ) ;
#67 = FACE_OUTER_BOUND ( 'NONE', #9, .T. ) ;
#68 = APPLICATION_CONTEXT ( 'configuration controlled 3d designs of mechanical parts and assemblies' ) ;
#69 = APPROVAL_DATE_TIME ( #99, #162 ) ;
#70 = PERSON ( 'UNSPECIFIED', 'UNSPECIFIED', 'UNSPECIFIED', ('UNSPECIFIED'), ('UNSPECIFIED'), ('UNSPECIFIED') ) ;
#71 = ADVANCED_FACE ( 'NONE', ( #61, #163 ), #172, .T. ) ;
#72 = DIRECTION ( 'NONE',  ( 4.275831445896958607E-31, 1.000000000000000000, 1.224646799147353207E-16 ) ) ;
#73 = DIRECTION ( 'NONE',  ( 0.0000000000000000000, 1.000000000000000000, 0.0000000000000000000 ) ) ;
#74 = DIRECTION ( 'NONE',  ( -3.491481338843133355E-15, 1.224646799147353207E-16, -1.000000000000000000 ) ) ;
#75 = ORIENTED_EDGE ( 'NONE', *, *, #139, .T. ) ;
#76 = APPLICATION_PROTOCOL_DEFINITION ( 'international standard', 'config_control_design', 1994, #68 ) ;
#77 =( NAMED_UNIT ( * ) SI_UNIT ( $, .STERADIAN. ) SOLID_ANGLE_UNIT ( ) );
#78 = CARTESIAN_POINT ( 'NONE',  ( 2.793185071074506684E-14, 1.999999999999994005, 8.000000000000000000 ) ) ;
#79 = SHAPE_DEFINITION_REPRESENTATION ( #106, #40 ) ;
#80 = DATE_AND_TIME ( #160, #137 ) ;
#81 = AXIS2_PLACEMENT_3D ( 'NONE', #198, #105, #89 ) ;
#82 = AXIS2_PLACEMENT_3D ( 'NONE', #58, #31, #165 ) ;
#83 = APPROVAL_STATUS ( 'not_yet_approved' ) ;
#84 = ORIENTED_EDGE ( 'NONE', *, *, #17, .F. ) ;
#85 = DIRECTION ( 'NONE',  ( -3.491481338843133355E-15, 1.224646799147353207E-16, -1.000000000000000000 ) ) ;
#86 = AXIS2_PLACEMENT_3D ( 'NONE', #34, #117, #72 ) ;
#87 = DIRECTION ( 'NONE',  ( 4.275831445896959482E-31, 1.000000000000000000, 1.224646799147353207E-16 ) ) ;
#88 = DESIGN_CONTEXT ( 'detailed design', #24, 'design' ) ;
#89 = DIRECTION ( 'NONE',  ( -4.275831445896958607E-31, -1.000000000000000000, -1.224646799147353207E-16 ) ) ;
#90 = DIRECTION ( 'NONE',  ( 0.0000000000000000000, 1.000000000000000000, 0.0000000000000000000 ) ) ;
#91 = CYLINDRICAL_SURFACE ( 'NONE', #167, 1.999999999999997335 ) ;
#92 = ADVANCED_FACE ( 'NONE', ( #146 ), #8, .F. ) ;
#93 = FACE_OUTER_BOUND ( 'NONE', #134, .T. ) ;
#94 = CIRCLE ( 'NONE', #173, 2.000000000000000000 ) ;
#95 = FACE_OUTER_BOUND ( 'NONE', #102, .T. ) ;
#96 = APPROVAL_STATUS ( 'not_yet_approved' ) ;
#97 = ORGANIZATION ( 'UNSPECIFIED', 'UNSPECIFIED', '' ) ;
#98 = APPROVAL ( #107, 'UNSPECIFIED' ) ;
#99 = DATE_AND_TIME ( #30, #15 ) ;
#100 = DIRECTION ( 'NONE',  ( 0.0000000000000000000, 1.000000000000000000, 0.0000000000000000000 ) ) ;
#101 = CC_DESIGN_PERSON_AND_ORGANIZATION_ASSIGNMENT ( #189, #190, ( #14 ) ) ;
#102 = EDGE_LOOP ( 'NONE', ( #149 ) ) ;
#103 = ORIENTED_EDGE ( 'NONE', *, *, #113, .T. ) ;
#104 = EDGE_LOOP ( 'NONE', ( #36 ) ) ;
#105 = DIRECTION ( 'NONE',  ( 3.491481338843133355E-15, -1.224646799147353207E-16, 1.000000000000000000 ) ) ;
#106 = PRODUCT_DEFINITION_SHAPE ( 'NONE', 'NONE',  #202 ) ;
#107 = APPROVAL_STATUS ( 'not_yet_approved' ) ;
#108 = LOCAL_TIME ( 9, 40, 44.00000000000000000, #144 ) ;
#109 = CARTESIAN_POINT ( 'NONE',  ( 0.0000000000000000000, 0.0000000000000000000, 0.0000000000000000000 ) ) ;
#110 = DIRECTION ( 'NONE',  ( 4.275831445896959482E-31, 1.000000000000000000, 1.224646799147353454E-16 ) ) ;
#111 = AXIS2_PLACEMENT_3D ( 'NONE', #136, #116, #178 ) ;
#112 = AXIS2_PLACEMENT_3D ( 'NONE', #109, #155, #1 ) ;
#113 = EDGE_CURVE ( 'NONE', #186, #186, #55, .T. ) ;
#114 = SECURITY_CLASSIFICATION_LEVEL ( 'unclassified' ) ;
#115 = DATE_TIME_ROLE ( 'classification_date' ) ;
#116 = DIRECTION ( 'NONE',  ( -3.491481338843133355E-15, 1.224646799147353207E-16, -1.000000000000000000 ) ) ;
#117 = DIRECTION ( 'NONE',  ( -3.491481338843133355E-15, 1.224646799147353207E-16, -1.000000000000000000 ) ) ;
#118 = CARTESIAN_POINT ( 'NONE',  ( 2.793185071074506684E-14, -9.797174393178825657E-16, 8.000000000000000000 ) ) ;
#119 = APPROVAL_PERSON_ORGANIZATION ( #4, #162, #128 ) ;
#120 = PERSON_AND_ORGANIZATION ( #70, #97 ) ;
#121 = PRODUCT_RELATED_PRODUCT_CATEGORY ( 'detail', '', ( #125 ) ) ;
#122 = CC_DESIGN_DATE_AND_TIME_ASSIGNMENT ( #80, #43, ( #202 ) ) ;
#123 = CYLINDRICAL_SURFACE ( 'NONE', #112, 1.999999999999994449 ) ;
#124 = VERTEX_POINT ( 'NONE', #18 ) ;
#125 = PRODUCT ( '376934', '376934', '', ( #21 ) ) ;
#126 = MANIFOLD_SOLID_BREP ( 'Corps-Déplacer/Copier1[1]', #153 ) ;
#127 = CC_DESIGN_PERSON_AND_ORGANIZATION_ASSIGNMENT ( #7, #22, ( #14 ) ) ;
#128 = APPROVAL_ROLE ( '' ) ;
#129 = CC_DESIGN_SECURITY_CLASSIFICATION ( #194, ( #14 ) ) ;
#130 = DATE_AND_TIME ( #177, #108 ) ;
#131 = CARTESIAN_POINT ( 'NONE',  ( -1.068953943006578988E-30, 3.749385712520242717E-32, -3.061605774930952225E-16 ) ) ;
#132 = CC_DESIGN_PERSON_AND_ORGANIZATION_ASSIGNMENT ( #120, #184, ( #125 ) ) ;
#133 = CARTESIAN_POINT ( 'NONE',  ( 1.731774744066194397E-13, -6.074248123770872657E-15, 49.60000000000000853 ) ) ;
#134 = EDGE_LOOP ( 'NONE', ( #75 ) ) ;
#135 = EDGE_LOOP ( 'NONE', ( #164 ) ) ;
#136 = CARTESIAN_POINT ( 'NONE',  ( 2.793185071074506684E-14, -9.797174393178825657E-16, 8.000000000000000000 ) ) ;
#137 = LOCAL_TIME ( 9, 40, 44.00000000000000000, #161 ) ;
#138 = APPROVAL_DATE_TIME ( #13, #98 ) ;
#139 = EDGE_CURVE ( 'NONE', #20, #20, #33, .T. ) ;
#140 = APPLICATION_PROTOCOL_DEFINITION ( 'international standard', 'config_control_design', 1994, #24 ) ;
#141 =( NAMED_UNIT ( * ) PLANE_ANGLE_UNIT ( ) SI_UNIT ( $, .RADIAN. ) );
#142 = EDGE_CURVE ( 'NONE', #152, #152, #94, .T. ) ;
#143 = AXIS2_PLACEMENT_3D ( 'NONE', #118, #85, #73 ) ;
#144 = COORDINATED_UNIVERSAL_TIME_OFFSET ( 1, 0, .AHEAD. ) ;
#145 = FACE_OUTER_BOUND ( 'NONE', #57, .T. ) ;
#146 = FACE_OUTER_BOUND ( 'NONE', #135, .T. ) ;
#147 = CC_DESIGN_APPROVAL ( #162, ( #14 ) ) ;
#148 = DIRECTION ( 'NONE',  ( -4.275831445896958607E-31, -1.000000000000000000, -1.224646799147353207E-16 ) ) ;
#149 = ORIENTED_EDGE ( 'NONE', *, *, #113, .F. ) ;
#150 = CALENDAR_DATE ( 2021, 8, 12 ) ;
#151 = CC_DESIGN_PERSON_AND_ORGANIZATION_ASSIGNMENT ( #65, #203, ( #202 ) ) ;
#152 = VERTEX_POINT ( 'NONE', #39 ) ;
#153 = CLOSED_SHELL ( 'NONE', ( #11, #175, #71, #92 ) ) ;
#154 = CC_DESIGN_APPROVAL ( #60, ( #194 ) ) ;
#155 = DIRECTION ( 'NONE',  ( -3.491481338843133355E-15, 1.224646799147353207E-16, -1.000000000000000000 ) ) ;
#156 =( LENGTH_UNIT ( ) NAMED_UNIT ( * ) SI_UNIT ( .MILLI., .METRE. ) );
#157 = COORDINATED_UNIVERSAL_TIME_OFFSET ( 1, 0, .AHEAD. ) ;
#158 = ADVANCED_FACE ( 'NONE', ( #187 ), #50, .T. ) ;
#159 = PERSON_AND_ORGANIZATION ( #70, #97 ) ;
#160 = CALENDAR_DATE ( 2021, 8, 12 ) ;
#161 = COORDINATED_UNIVERSAL_TIME_OFFSET ( 1, 0, .AHEAD. ) ;
#162 = APPROVAL ( #96, 'UNSPECIFIED' ) ;
#163 = FACE_BOUND ( 'NONE', #201, .T. ) ;
#164 = ORIENTED_EDGE ( 'NONE', *, *, #54, .F. ) ;
#165 = DIRECTION ( 'NONE',  ( 0.0000000000000000000, 1.000000000000000000, 0.0000000000000000000 ) ) ;
#166 = ORIENTED_EDGE ( 'NONE', *, *, #17, .T. ) ;
#167 = AXIS2_PLACEMENT_3D ( 'NONE', #41, #52, #110 ) ;
#168 = ORIENTED_EDGE ( 'NONE', *, *, #139, .F. ) ;
#169 = APPROVAL_ROLE ( '' ) ;
#170 = DIRECTION ( 'NONE',  ( 0.0000000000000000000, 0.0000000000000000000, 1.000000000000000000 ) ) ;
#171 = DIRECTION ( 'NONE',  ( 3.491481338843133355E-15, -1.224646799147353207E-16, 1.000000000000000000 ) ) ;
#172 = CONICAL_SURFACE ( 'NONE', #82, 1.600000000000000089, 0.7853981633974512766 ) ;
#173 = AXIS2_PLACEMENT_3D ( 'NONE', #133, #197, #90 ) ;
#174 = DIRECTION ( 'NONE',  ( -4.275831445896958607E-31, -1.000000000000000000, -1.224646799147353207E-16 ) ) ;
#175 = ADVANCED_FACE ( 'NONE', ( #42, #67 ), #91, .T. ) ;
#176 = AXIS2_PLACEMENT_3D ( 'NONE', #3, #171, #174 ) ;
#177 = CALENDAR_DATE ( 2021, 8, 12 ) ;
#178 = DIRECTION ( 'NONE',  ( 0.0000000000000000000, 1.000000000000000000, 0.0000000000000000000 ) ) ;
#179 = CC_DESIGN_DATE_AND_TIME_ASSIGNMENT ( #130, #115, ( #194 ) ) ;
#180 = AXIS2_PLACEMENT_3D ( 'NONE', #32, #200, #148 ) ;
#181 = FACE_OUTER_BOUND ( 'NONE', #183, .T. ) ;
#182 = APPROVAL_PERSON_ORGANIZATION ( #26, #60, #56 ) ;
#183 = EDGE_LOOP ( 'NONE', ( #103 ) ) ;
#184 = PERSON_AND_ORGANIZATION_ROLE ( 'design_owner' ) ;
#185 = COORDINATED_UNIVERSAL_TIME_OFFSET ( 1, 0, .AHEAD. ) ;
#186 = VERTEX_POINT ( 'NONE', #38 ) ;
#187 = FACE_OUTER_BOUND ( 'NONE', #63, .T. ) ;
#188 = COORDINATED_UNIVERSAL_TIME_OFFSET ( 1, 0, .AHEAD. ) ;
#189 = PERSON_AND_ORGANIZATION ( #70, #97 ) ;
#190 = PERSON_AND_ORGANIZATION_ROLE ( 'creator' ) ;
#191 = CALENDAR_DATE ( 2021, 8, 12 ) ;
#192 = APPROVAL_DATE_TIME ( #45, #60 ) ;
#193 = ADVANCED_FACE ( 'NONE', ( #95, #93 ), #123, .T. ) ;
#194 = SECURITY_CLASSIFICATION ( '', '', #114 ) ;
#195 = DIRECTION ( 'NONE',  ( -3.491481338843133355E-15, 1.224646799147353207E-16, -1.000000000000000000 ) ) ;
#196 = CC_DESIGN_PERSON_AND_ORGANIZATION_ASSIGNMENT ( #159, #23, ( #194 ) ) ;
#197 = DIRECTION ( 'NONE',  ( -3.491481338843133355E-15, 1.224646799147353207E-16, -1.000000000000000000 ) ) ;
#198 = CARTESIAN_POINT ( 'NONE',  ( -5.344769715032894940E-31, 1.874692856260121358E-32, -1.530802887465476112E-16 ) ) ;
#199 = CIRCLE ( 'NONE', #111, 1.999999999999994893 ) ;
#200 = DIRECTION ( 'NONE',  ( 3.491481338843133355E-15, -1.224646799147353207E-16, 1.000000000000000000 ) ) ;
#201 = EDGE_LOOP ( 'NONE', ( #48 ) ) ;
#202 = PRODUCT_DEFINITION ( 'UNKNOWN', '', #14, #88 ) ;
#203 = PERSON_AND_ORGANIZATION_ROLE ( 'creator' ) ;
ENDSEC;
END-ISO-10303-21;
