ISO-10303-21;
HEADER;
FILE_DESCRIPTION (( 'STEP AP203' ),
    '1' );
FILE_NAME ('376933.step',
    '2021-12-08T08:40:43',
    ( '' ),
    ( '' ),
    'SwSTEP 2.0',
    'SolidWorks 2019',
    '' );
FILE_SCHEMA (( 'CONFIG_CONTROL_DESIGN' ));
ENDSEC;

DATA;
#1 = EDGE_LOOP ( 'NONE', ( #137 ) ) ;
#2 = VERTEX_POINT ( 'NONE', #41 ) ;
#3 = DIRECTION ( 'NONE',  ( 0.0000000000000000000, -1.000000000000000000, 0.0000000000000000000 ) ) ;
#4 = CYLINDRICAL_SURFACE ( 'NONE', #24, 1.749999999999993339 ) ;
#5 = CLOSED_SHELL ( 'NONE', ( #187, #144, #167, #52, #201 ) ) ;
#6 = DIRECTION ( 'NONE',  ( -3.491481338843133355E-15, 1.224646799147353207E-16, -1.000000000000000000 ) ) ;
#7 = FACE_OUTER_BOUND ( 'NONE', #119, .T. ) ;
#8 = DATE_AND_TIME ( #111, #51 ) ;
#9 = APPROVAL_STATUS ( 'not_yet_approved' ) ;
#10 = APPROVAL ( #182, 'UNSPECIFIED' ) ;
#11 = APPROVAL_STATUS ( 'not_yet_approved' ) ;
#12 = DATE_AND_TIME ( #98, #135 ) ;
#13 = APPROVAL_PERSON_ORGANIZATION ( #31, #48, #148 ) ;
#14 = CALENDAR_DATE ( 2021, 8, 12 ) ;
#15 = ORGANIZATION ( 'UNSPECIFIED', 'UNSPECIFIED', '' ) ;
#16 = CC_DESIGN_PERSON_AND_ORGANIZATION_ASSIGNMENT ( #96, #60, ( #72 ) ) ;
#17 = DIRECTION ( 'NONE',  ( 0.0000000000000000000, -1.000000000000000000, 0.0000000000000000000 ) ) ;
#18 = APPROVAL ( #9, 'UNSPECIFIED' ) ;
#19 = AXIS2_PLACEMENT_3D ( 'NONE', #70, #43, #215 ) ;
#20 = DIRECTION ( 'NONE',  ( 0.0000000000000000000, 1.000000000000000000, 0.0000000000000000000 ) ) ;
#21 = CARTESIAN_POINT ( 'NONE',  ( 1.745740669421566678E-13, 2.149999999999987921, 50.00000000000000000 ) ) ;
#22 = DIRECTION ( 'NONE',  ( -4.275831445896958607E-31, -1.000000000000000000, -1.224646799147353207E-16 ) ) ;
#23 = DIRECTION ( 'NONE',  ( -3.491481338843133355E-15, 1.224646799147353207E-16, -1.000000000000000000 ) ) ;
#24 = AXIS2_PLACEMENT_3D ( 'NONE', #57, #40, #176 ) ;
#25 = FACE_OUTER_BOUND ( 'NONE', #207, .T. ) ;
#26 = PERSON_AND_ORGANIZATION ( #88, #15 ) ;
#27 = DATE_AND_TIME ( #166, #118 ) ;
#28 = CIRCLE ( 'NONE', #147, 1.749999999999993561 ) ;
#29 = APPLICATION_PROTOCOL_DEFINITION ( 'international standard', 'config_control_design', 1994, #62 ) ;
#30 = APPROVAL_DATE_TIME ( #150, #48 ) ;
#31 = PERSON_AND_ORGANIZATION ( #88, #15 ) ;
#32 = AXIS2_PLACEMENT_3D ( 'NONE', #160, #71, #22 ) ;
#33 = EDGE_LOOP ( 'NONE', ( #152 ) ) ;
#34 = EDGE_LOOP ( 'NONE', ( #104 ) ) ;
#35 = ORIENTED_EDGE ( 'NONE', *, *, #77, .F. ) ;
#36 = FACE_OUTER_BOUND ( 'NONE', #34, .T. ) ;
#37 = PRODUCT ( '376933', '376933', '', ( #223 ) ) ;
#38 = VERTEX_POINT ( 'NONE', #21 ) ;
#39 = LOCAL_TIME ( 9, 40, 43.00000000000000000, #186 ) ;
#40 = DIRECTION ( 'NONE',  ( 3.491481338843133355E-15, -1.276467311168695266E-16, 1.000000000000000000 ) ) ;
#41 = CARTESIAN_POINT ( 'NONE',  ( 2.573617357001335159E-31, -1.749999999999992895, 7.371133072858059299E-17 ) ) ;
#42 = DIRECTION ( 'NONE',  ( -3.491481338843133355E-15, 1.224646799147353207E-16, -1.000000000000000000 ) ) ;
#43 = DIRECTION ( 'NONE',  ( -3.491481338843133355E-15, 1.276467311168695266E-16, -1.000000000000000000 ) ) ;
#44 = APPROVAL_DATE_TIME ( #8, #10 ) ;
#45 = PRODUCT_RELATED_PRODUCT_CATEGORY ( 'detail', '', ( #37 ) ) ;
#46 = LOCAL_TIME ( 9, 40, 43.00000000000000000, #188 ) ;
#47 = EDGE_LOOP ( 'NONE', ( #79 ) ) ;
#48 = APPROVAL ( #11, 'UNSPECIFIED' ) ;
#49 = CARTESIAN_POINT ( 'NONE',  ( 4.189777606611761289E-14, -1.531760773402434713E-15, 12.00000000000000355 ) ) ;
#50 = CIRCLE ( 'NONE', #179, 1.749999999999992895 ) ;
#51 = LOCAL_TIME ( 9, 40, 43.00000000000000000, #131 ) ;
#52 = ADVANCED_FACE ( 'NONE', ( #120, #210 ), #91, .T. ) ;
#53 = PRODUCT_DEFINITION_SHAPE ( 'NONE', 'NONE',  #139 ) ;
#54 = CARTESIAN_POINT ( 'NONE',  ( 1.745740669421566678E-13, -6.123233995736766085E-15, 50.00000000000000000 ) ) ;
#55 = FACE_OUTER_BOUND ( 'NONE', #64, .T. ) ;
#56 = FACE_OUTER_BOUND ( 'NONE', #134, .T. ) ;
#57 = CARTESIAN_POINT ( 'NONE',  ( -6.413839710158237013E-31, 0.0000000000000000000, -1.836996703606440502E-16 ) ) ;
#58 = AXIS2_PLACEMENT_3D ( 'NONE', #90, #199, #3 ) ;
#59 = CC_DESIGN_DATE_AND_TIME_ASSIGNMENT ( #27, #205, ( #72 ) ) ;
#60 = PERSON_AND_ORGANIZATION_ROLE ( 'classification_officer' ) ;
#61 = PERSON_AND_ORGANIZATION ( #88, #15 ) ;
#62 = APPLICATION_CONTEXT ( 'configuration controlled 3d designs of mechanical parts and assemblies' ) ;
#63 = ADVANCED_FACE ( 'NONE', ( #36 ), #191, .F. ) ;
#64 = EDGE_LOOP ( 'NONE', ( #35 ) ) ;
#65 = EDGE_CURVE ( 'NONE', #198, #198, #28, .T. ) ;
#66 =( GEOMETRIC_REPRESENTATION_CONTEXT ( 3 ) GLOBAL_UNCERTAINTY_ASSIGNED_CONTEXT ( ( #206 ) ) GLOBAL_UNIT_ASSIGNED_CONTEXT ( ( #196, #107, #217 ) ) REPRESENTATION_CONTEXT ( 'NONE', 'WORKASPACE' ) );
#67 = DIRECTION ( 'NONE',  ( 3.491481338843133355E-15, -1.224646799147353207E-16, 1.000000000000000000 ) ) ;
#68 = MANIFOLD_SOLID_BREP ( 'Corps-Déplacer/Copier1[1]', #5 ) ;
#69 = EDGE_LOOP ( 'NONE', ( #190 ) ) ;
#70 = CARTESIAN_POINT ( 'NONE',  ( 5.167056537879844319E-14, -1.889048837863613218E-15, 14.79903810567664557 ) ) ;
#71 = DIRECTION ( 'NONE',  ( 3.491481338843133355E-15, -1.224646799147353207E-16, 1.000000000000000000 ) ) ;
#72 = SECURITY_CLASSIFICATION ( '', '', #183 ) ;
#73 = VERTEX_POINT ( 'NONE', #140 ) ;
#74 = DIRECTION ( 'NONE',  ( 4.275831445896958607E-31, 1.000000000000000000, 1.224646799147352961E-16 ) ) ;
#75 = FACE_OUTER_BOUND ( 'NONE', #136, .T. ) ;
#76 = APPROVAL_ROLE ( '' ) ;
#77 = EDGE_CURVE ( 'NONE', #73, #73, #204, .T. ) ;
#78 = APPROVAL_DATE_TIME ( #12, #18 ) ;
#79 = ORIENTED_EDGE ( 'NONE', *, *, #106, .T. ) ;
#80 = APPROVAL_PERSON_ORGANIZATION ( #202, #10, #185 ) ;
#81 = ORIENTED_EDGE ( 'NONE', *, *, #77, .T. ) ;
#82 = CC_DESIGN_DATE_AND_TIME_ASSIGNMENT ( #112, #165, ( #139 ) ) ;
#83 = EDGE_LOOP ( 'NONE', ( #192 ) ) ;
#84 = PRODUCT_DEFINITION_FORMATION_WITH_SPECIFIED_SOURCE ( 'ANY', '', #37, .NOT_KNOWN. ) ;
#85 = CARTESIAN_POINT ( 'NONE',  ( 4.189777606611761289E-14, -1.749999999999995115, 12.00000000000000355 ) ) ;
#86 = DIRECTION ( 'NONE',  ( -4.456761796588770537E-31, -1.000000000000000000, -1.276467311168695266E-16 ) ) ;
#87 = EDGE_CURVE ( 'NONE', #216, #216, #151, .T. ) ;
#88 = PERSON ( 'UNSPECIFIED', 'UNSPECIFIED', 'UNSPECIFIED', ('UNSPECIFIED'), ('UNSPECIFIED'), ('UNSPECIFIED') ) ;
#89 = DIRECTION ( 'NONE',  ( 0.0000000000000000000, 1.000000000000000000, 0.0000000000000000000 ) ) ;
#90 = CARTESIAN_POINT ( 'NONE',  ( 4.189777606611761289E-14, -1.531760773402434713E-15, 12.00000000000000355 ) ) ;
#91 = CONICAL_SURFACE ( 'NONE', #222, 6.749999999999993783, 0.2617993877991501850 ) ;
#92 = PLANE ( 'NONE',  #32 ) ;
#93 = APPLICATION_PROTOCOL_DEFINITION ( 'international standard', 'config_control_design', 1994, #124 ) ;
#94 = PERSON_AND_ORGANIZATION ( #88, #15 ) ;
#95 = AXIS2_PLACEMENT_3D ( 'NONE', #162, #220, #129 ) ;
#96 = PERSON_AND_ORGANIZATION ( #88, #15 ) ;
#97 = CC_DESIGN_PERSON_AND_ORGANIZATION_ASSIGNMENT ( #26, #115, ( #84 ) ) ;
#98 = CALENDAR_DATE ( 2021, 8, 12 ) ;
#99 = CC_DESIGN_APPROVAL ( #48, ( #139 ) ) ;
#100 = CC_DESIGN_PERSON_AND_ORGANIZATION_ASSIGNMENT ( #149, #116, ( #84 ) ) ;
#101 = DIRECTION ( 'NONE',  ( 3.491481338843133355E-15, -1.276467311168695266E-16, 1.000000000000000000 ) ) ;
#102 = CARTESIAN_POINT ( 'NONE',  ( 1.070497048173233334E-13, -3.913681203143629547E-15, 30.66025403784433578 ) ) ;
#103 = ORIENTED_EDGE ( 'NONE', *, *, #130, .T. ) ;
#104 = ORIENTED_EDGE ( 'NONE', *, *, #130, .F. ) ;
#105 = CARTESIAN_POINT ( 'NONE',  ( 1.037295050103165316E-30, -6.137162678099953001E-32, 2.970931101831013647E-16 ) ) ;
#106 = EDGE_CURVE ( 'NONE', #38, #38, #114, .T. ) ;
#107 =( NAMED_UNIT ( * ) PLANE_ANGLE_UNIT ( ) SI_UNIT ( $, .RADIAN. ) );
#108 = DIRECTION ( 'NONE',  ( 3.491481338843133355E-15, -1.224646799147353207E-16, 1.000000000000000000 ) ) ;
#109 = FACE_OUTER_BOUND ( 'NONE', #1, .T. ) ;
#110 = FACE_BOUND ( 'NONE', #47, .T. ) ;
#111 = CALENDAR_DATE ( 2021, 8, 12 ) ;
#112 = DATE_AND_TIME ( #132, #39 ) ;
#113 = PERSON_AND_ORGANIZATION_ROLE ( 'creator' ) ;
#114 = CIRCLE ( 'NONE', #197, 2.149999999999994138 ) ;
#115 = PERSON_AND_ORGANIZATION_ROLE ( 'creator' ) ;
#116 = PERSON_AND_ORGANIZATION_ROLE ( 'design_supplier' ) ;
#117 = EDGE_CURVE ( 'NONE', #157, #157, #184, .T. ) ;
#118 = LOCAL_TIME ( 9, 40, 43.00000000000000000, #203 ) ;
#119 = EDGE_LOOP ( 'NONE', ( #103 ) ) ;
#120 = FACE_BOUND ( 'NONE', #83, .T. ) ;
#121 = AXIS2_PLACEMENT_3D ( 'NONE', #146, #108, #125 ) ;
#122 = ORIENTED_EDGE ( 'NONE', *, *, #65, .F. ) ;
#123 = ORIENTED_EDGE ( 'NONE', *, *, #87, .T. ) ;
#124 = APPLICATION_CONTEXT ( 'configuration controlled 3d designs of mechanical parts and assemblies' ) ;
#125 = DIRECTION ( 'NONE',  ( -4.275831445896958607E-31, -1.000000000000000000, -1.224646799147353207E-16 ) ) ;
#126 = CYLINDRICAL_SURFACE ( 'NONE', #172, 2.499999999999992006 ) ;
#127 = DIRECTION ( 'NONE',  ( -3.491481338843133355E-15, 1.224646799147353207E-16, -1.000000000000000000 ) ) ;
#128 = PERSON_AND_ORGANIZATION ( #88, #15 ) ;
#129 = DIRECTION ( 'NONE',  ( 1.000000000000000000, 0.0000000000000000000, 0.0000000000000000000 ) ) ;
#130 = EDGE_CURVE ( 'NONE', #2, #2, #50, .T. ) ;
#131 = COORDINATED_UNIVERSAL_TIME_OFFSET ( 1, 0, .AHEAD. ) ;
#132 = CALENDAR_DATE ( 2021, 8, 12 ) ;
#133 = APPROVAL_PERSON_ORGANIZATION ( #94, #18, #76 ) ;
#134 = EDGE_LOOP ( 'NONE', ( #122 ) ) ;
#135 = LOCAL_TIME ( 9, 40, 43.00000000000000000, #218 ) ;
#136 = EDGE_LOOP ( 'NONE', ( #123 ) ) ;
#137 = ORIENTED_EDGE ( 'NONE', *, *, #117, .F. ) ;
#138 = MANIFOLD_SOLID_BREP ( 'Corps-Déplacer/Copier1[2]', #159 ) ;
#139 = PRODUCT_DEFINITION ( 'UNKNOWN', '', #84, #163 ) ;
#140 = CARTESIAN_POINT ( 'NONE',  ( 5.167056537879844319E-14, -2.499999999999993339, 14.79903810567664557 ) ) ;
#141 = CARTESIAN_POINT ( 'NONE',  ( 0.0000000000000000000, 0.0000000000000000000, 0.0000000000000000000 ) ) ;
#142 = CC_DESIGN_APPROVAL ( #18, ( #72 ) ) ;
#143 = CARTESIAN_POINT ( 'NONE',  ( 1.745740669421566678E-13, 1.612241766361483518E-32, 50.00000000000000000 ) ) ;
#144 = ADVANCED_FACE ( 'NONE', ( #25, #110 ), #209, .T. ) ;
#145 = PLANE ( 'NONE',  #121 ) ;
#146 = CARTESIAN_POINT ( 'NONE',  ( 4.189777606611761289E-14, 1.874699728327311610E-32, 12.00000000000000355 ) ) ;
#147 = AXIS2_PLACEMENT_3D ( 'NONE', #49, #171, #17 ) ;
#148 = APPROVAL_ROLE ( '' ) ;
#149 = PERSON_AND_ORGANIZATION ( #88, #15 ) ;
#150 = DATE_AND_TIME ( #14, #46 ) ;
#151 = CIRCLE ( 'NONE', #169, 2.499999999999993783 ) ;
#152 = ORIENTED_EDGE ( 'NONE', *, *, #65, .T. ) ;
#153 = ADVANCED_FACE ( 'NONE', ( #158 ), #92, .T. ) ;
#154 = CARTESIAN_POINT ( 'NONE',  ( -1.282747271474972116E-30, 4.499271763678768869E-32, -3.673934204385572764E-16 ) ) ;
#155 = CC_DESIGN_APPROVAL ( #10, ( #84 ) ) ;
#156 = DIRECTION ( 'NONE',  ( 0.0000000000000000000, 1.000000000000000000, 0.0000000000000000000 ) ) ;
#157 = VERTEX_POINT ( 'NONE', #85 ) ;
#158 = FACE_OUTER_BOUND ( 'NONE', #33, .T. ) ;
#159 = CLOSED_SHELL ( 'NONE', ( #153, #170, #63 ) ) ;
#160 = CARTESIAN_POINT ( 'NONE',  ( 4.189777606611761289E-14, 1.874699728327311610E-32, 12.00000000000000355 ) ) ;
#161 = DIRECTION ( 'NONE',  ( 4.275831445896958607E-31, 1.000000000000000000, 1.224646799147353207E-16 ) ) ;
#162 = CARTESIAN_POINT ( 'NONE',  ( 0.0000000000000000000, 0.0000000000000000000, 0.0000000000000000000 ) ) ;
#163 = DESIGN_CONTEXT ( 'detailed design', #62, 'design' ) ;
#164 = CC_DESIGN_SECURITY_CLASSIFICATION ( #72, ( #84 ) ) ;
#165 = DATE_TIME_ROLE ( 'creation_date' ) ;
#166 = CALENDAR_DATE ( 2021, 8, 12 ) ;
#167 = ADVANCED_FACE ( 'NONE', ( #175 ), #177, .F. ) ;
#168 = PERSON_AND_ORGANIZATION_ROLE ( 'design_owner' ) ;
#169 = AXIS2_PLACEMENT_3D ( 'NONE', #214, #42, #156 ) ;
#170 = ADVANCED_FACE ( 'NONE', ( #7, #56 ), #4, .T. ) ;
#171 = DIRECTION ( 'NONE',  ( 3.491481338843133355E-15, -1.276467311168695266E-16, 1.000000000000000000 ) ) ;
#172 = AXIS2_PLACEMENT_3D ( 'NONE', #141, #6, #74 ) ;
#173 = EDGE_LOOP ( 'NONE', ( #81 ) ) ;
#174 = ADVANCED_BREP_SHAPE_REPRESENTATION ( '376933', ( #68, #138, #95 ), #66 ) ;
#175 = FACE_OUTER_BOUND ( 'NONE', #69, .T. ) ;
#176 = DIRECTION ( 'NONE',  ( -4.456761796588770537E-31, -1.000000000000000000, -1.276467311168695512E-16 ) ) ;
#177 = PLANE ( 'NONE',  #213 ) ;
#178 = CARTESIAN_POINT ( 'NONE',  ( 4.189777606611761289E-14, -1.749999999999995115, 12.00000000000000355 ) ) ;
#179 = AXIS2_PLACEMENT_3D ( 'NONE', #105, #180, #86 ) ;
#180 = DIRECTION ( 'NONE',  ( 3.491481338843133355E-15, -1.276467311168695266E-16, 1.000000000000000000 ) ) ;
#181 = CC_DESIGN_PERSON_AND_ORGANIZATION_ASSIGNMENT ( #128, #113, ( #139 ) ) ;
#182 = APPROVAL_STATUS ( 'not_yet_approved' ) ;
#183 = SECURITY_CLASSIFICATION_LEVEL ( 'unclassified' ) ;
#184 = CIRCLE ( 'NONE', #58, 1.749999999999993561 ) ;
#185 = APPROVAL_ROLE ( '' ) ;
#186 = COORDINATED_UNIVERSAL_TIME_OFFSET ( 1, 0, .AHEAD. ) ;
#187 = ADVANCED_FACE ( 'NONE', ( #75, #55 ), #126, .T. ) ;
#188 = COORDINATED_UNIVERSAL_TIME_OFFSET ( 1, 0, .AHEAD. ) ;
#189 = AXIS2_PLACEMENT_3D ( 'NONE', #212, #127, #89 ) ;
#190 = ORIENTED_EDGE ( 'NONE', *, *, #106, .F. ) ;
#191 = PLANE ( 'NONE',  #193 ) ;
#192 = ORIENTED_EDGE ( 'NONE', *, *, #117, .T. ) ;
#193 = AXIS2_PLACEMENT_3D ( 'NONE', #154, #67, #208 ) ;
#194 = DIRECTION ( 'NONE',  ( 0.0000000000000000000, -1.000000000000000000, 0.0000000000000000000 ) ) ;
#195 = CARTESIAN_POINT ( 'NONE',  ( 1.733520484735615301E-13, 2.499999999999988010, 49.64999999999999147 ) ) ;
#196 =( LENGTH_UNIT ( ) NAMED_UNIT ( * ) SI_UNIT ( .MILLI., .METRE. ) );
#197 = AXIS2_PLACEMENT_3D ( 'NONE', #54, #23, #20 ) ;
#198 = VERTEX_POINT ( 'NONE', #178 ) ;
#199 = DIRECTION ( 'NONE',  ( 3.491481338843133355E-15, -1.276467311168695266E-16, 1.000000000000000000 ) ) ;
#200 = DIRECTION ( 'NONE',  ( -3.491481338843133355E-15, 1.224646799147353207E-16, -1.000000000000000000 ) ) ;
#201 = ADVANCED_FACE ( 'NONE', ( #109 ), #145, .F. ) ;
#202 = PERSON_AND_ORGANIZATION ( #88, #15 ) ;
#203 = COORDINATED_UNIVERSAL_TIME_OFFSET ( 1, 0, .AHEAD. ) ;
#204 = CIRCLE ( 'NONE', #19, 2.499999999999992006 ) ;
#205 = DATE_TIME_ROLE ( 'classification_date' ) ;
#206 = UNCERTAINTY_MEASURE_WITH_UNIT (LENGTH_MEASURE( 1.000000000000000082E-05 ), #196, 'distance_accuracy_value', 'NONE');
#207 = EDGE_LOOP ( 'NONE', ( #211 ) ) ;
#208 = DIRECTION ( 'NONE',  ( -4.275831445896958607E-31, -1.000000000000000000, -1.224646799147353207E-16 ) ) ;
#209 = CONICAL_SURFACE ( 'NONE', #189, 2.149999999999994138, 0.7853981633974340681 ) ;
#210 = FACE_OUTER_BOUND ( 'NONE', #173, .T. ) ;
#211 = ORIENTED_EDGE ( 'NONE', *, *, #87, .F. ) ;
#212 = CARTESIAN_POINT ( 'NONE',  ( 1.745740669421566678E-13, -6.123233995736766085E-15, 50.00000000000000000 ) ) ;
#213 = AXIS2_PLACEMENT_3D ( 'NONE', #143, #200, #161 ) ;
#214 = CARTESIAN_POINT ( 'NONE',  ( 1.733520484735615301E-13, -6.080371357766608152E-15, 49.64999999999999147 ) ) ;
#215 = DIRECTION ( 'NONE',  ( 0.0000000000000000000, -1.000000000000000000, 0.0000000000000000000 ) ) ;
#216 = VERTEX_POINT ( 'NONE', #195 ) ;
#217 =( NAMED_UNIT ( * ) SI_UNIT ( $, .STERADIAN. ) SOLID_ANGLE_UNIT ( ) );
#218 = COORDINATED_UNIVERSAL_TIME_OFFSET ( 1, 0, .AHEAD. ) ;
#219 = CC_DESIGN_PERSON_AND_ORGANIZATION_ASSIGNMENT ( #61, #168, ( #37 ) ) ;
#220 = DIRECTION ( 'NONE',  ( 0.0000000000000000000, 0.0000000000000000000, 1.000000000000000000 ) ) ;
#221 = SHAPE_DEFINITION_REPRESENTATION ( #53, #174 ) ;
#222 = AXIS2_PLACEMENT_3D ( 'NONE', #102, #101, #194 ) ;
#223 = MECHANICAL_CONTEXT ( 'NONE', #124, 'mechanical' ) ;
ENDSEC;
END-ISO-10303-21;
