ISO-10303-21;
HEADER;
FILE_DESCRIPTION (( 'STEP AP203' ),
    '1' );
FILE_NAME ('37661.step',
    '2021-12-06T12:59:33',
    ( '' ),
    ( '' ),
    'SwSTEP 2.0',
    'SolidWorks 2019',
    '' );
FILE_SCHEMA (( 'CONFIG_CONTROL_DESIGN' ));
ENDSEC;

DATA;
#1 = VERTEX_POINT ( 'NONE', #149 ) ;
#2 = APPLICATION_PROTOCOL_DEFINITION ( 'international standard', 'config_control_design', 1994, #154 ) ;
#3 = PLANE ( 'NONE',  #78 ) ;
#4 = PRODUCT_DEFINITION ( 'UNKNOWN', '', #52, #91 ) ;
#5 = PERSON_AND_ORGANIZATION ( #12, #90 ) ;
#6 = EDGE_LOOP ( 'NONE', ( #106 ) ) ;
#7 = DIRECTION ( 'NONE',  ( 2.137915722948479128E-30, 1.000000000000000000, 6.123233995736765296E-16 ) ) ;
#8 = CARTESIAN_POINT ( 'NONE',  ( 1.396592535537245454E-15, -2.449293598294691623E-16, 0.3999999999999977462 ) ) ;
#9 = DIRECTION ( 'NONE',  ( 1.000000000000000000, 0.0000000000000000000, 0.0000000000000000000 ) ) ;
#10 = AXIS2_PLACEMENT_3D ( 'NONE', #73, #113, #141 ) ;
#11 = ADVANCED_BREP_SHAPE_REPRESENTATION ( '37661', ( #145, #169 ), #25 ) ;
#12 = PERSON ( 'UNSPECIFIED', 'UNSPECIFIED', 'UNSPECIFIED', ('UNSPECIFIED'), ('UNSPECIFIED'), ('UNSPECIFIED') ) ;
#13 = PRODUCT ( '37661', '37661', '', ( #142 ) ) ;
#14 = CC_DESIGN_APPROVAL ( #134, ( #79 ) ) ;
#15 = ORIENTED_EDGE ( 'NONE', *, *, #168, .T. ) ;
#16 = DIRECTION ( 'NONE',  ( -3.491481338843133355E-15, 6.123233995736764310E-16, -1.000000000000000000 ) ) ;
#17 = SECURITY_CLASSIFICATION_LEVEL ( 'unclassified' ) ;
#18 = EDGE_LOOP ( 'NONE', ( #120 ) ) ;
#19 = PERSON_AND_ORGANIZATION ( #12, #90 ) ;
#20 = EDGE_LOOP ( 'NONE', ( #111 ) ) ;
#21 = FACE_OUTER_BOUND ( 'NONE', #147, .T. ) ;
#22 = PERSON_AND_ORGANIZATION ( #12, #90 ) ;
#23 = VERTEX_POINT ( 'NONE', #156 ) ;
#24 = APPROVAL_STATUS ( 'not_yet_approved' ) ;
#25 =( GEOMETRIC_REPRESENTATION_CONTEXT ( 3 ) GLOBAL_UNCERTAINTY_ASSIGNED_CONTEXT ( ( #131 ) ) GLOBAL_UNIT_ASSIGNED_CONTEXT ( ( #59, #84, #60 ) ) REPRESENTATION_CONTEXT ( 'NONE', 'WORKASPACE' ) );
#26 = CC_DESIGN_DATE_AND_TIME_ASSIGNMENT ( #151, #35, ( #4 ) ) ;
#27 = LOCAL_TIME ( 13, 59, 33.00000000000000000, #114 ) ;
#28 = DIRECTION ( 'NONE',  ( 2.137915722948478778E-30, 1.000000000000000000, 6.123233995736764310E-16 ) ) ;
#29 = CC_DESIGN_PERSON_AND_ORGANIZATION_ASSIGNMENT ( #86, #71, ( #52 ) ) ;
#30 = EDGE_CURVE ( 'NONE', #1, #1, #51, .T. ) ;
#31 = APPROVAL_DATE_TIME ( #125, #134 ) ;
#32 = DIRECTION ( 'NONE',  ( -3.491481338843133355E-15, 6.123233995736764310E-16, -1.000000000000000000 ) ) ;
#33 = APPROVAL_ROLE ( '' ) ;
#34 = CARTESIAN_POINT ( 'NONE',  ( -9.086141822531035769E-30, 4.000000000000000000, -2.602374448188125054E-15 ) ) ;
#35 = DATE_TIME_ROLE ( 'creation_date' ) ;
#36 = ORIENTED_EDGE ( 'NONE', *, *, #30, .F. ) ;
#37 = CC_DESIGN_PERSON_AND_ORGANIZATION_ASSIGNMENT ( #22, #74, ( #4 ) ) ;
#38 = CC_DESIGN_SECURITY_CLASSIFICATION ( #79, ( #52 ) ) ;
#39 = CIRCLE ( 'NONE', #165, 4.000000000000000888 ) ;
#40 = CARTESIAN_POINT ( 'NONE',  ( 1.396592535537253342E-15, 12.50000000000000000, 0.3999999999999999667 ) ) ;
#41 = DATE_AND_TIME ( #110, #144 ) ;
#42 = DIRECTION ( 'NONE',  ( -3.491481338843133355E-15, 6.123233995736764310E-16, -1.000000000000000000 ) ) ;
#43 = CALENDAR_DATE ( 2021, 6, 12 ) ;
#44 = LOCAL_TIME ( 13, 59, 33.00000000000000000, #49 ) ;
#45 = PLANE ( 'NONE',  #108 ) ;
#46 = CARTESIAN_POINT ( 'NONE',  ( 0.0000000000000000000, 0.0000000000000000000, 0.0000000000000000000 ) ) ;
#47 = PRODUCT_DEFINITION_SHAPE ( 'NONE', 'NONE',  #4 ) ;
#48 = CARTESIAN_POINT ( 'NONE',  ( 1.396592535537244467E-15, 4.000000000000000888, 0.3999999999999974687 ) ) ;
#49 = COORDINATED_UNIVERSAL_TIME_OFFSET ( 1, 0, .AHEAD. ) ;
#50 = EDGE_CURVE ( 'NONE', #155, #155, #39, .T. ) ;
#51 = CIRCLE ( 'NONE', #89, 4.000000000000000000 ) ;
#52 = PRODUCT_DEFINITION_FORMATION_WITH_SPECIFIED_SOURCE ( 'ANY', '', #13, .NOT_KNOWN. ) ;
#53 = APPLICATION_CONTEXT ( 'configuration controlled 3d designs of mechanical parts and assemblies' ) ;
#54 = CC_DESIGN_PERSON_AND_ORGANIZATION_ASSIGNMENT ( #122, #56, ( #79 ) ) ;
#55 = ORIENTED_EDGE ( 'NONE', *, *, #30, .T. ) ;
#56 = PERSON_AND_ORGANIZATION_ROLE ( 'classification_officer' ) ;
#57 = DIRECTION ( 'NONE',  ( 2.137915722948478778E-30, 1.000000000000000000, 6.123233995736764310E-16 ) ) ;
#58 = APPROVAL_STATUS ( 'not_yet_approved' ) ;
#59 =( LENGTH_UNIT ( ) NAMED_UNIT ( * ) SI_UNIT ( .MILLI., .METRE. ) );
#60 =( NAMED_UNIT ( * ) SI_UNIT ( $, .STERADIAN. ) SOLID_ANGLE_UNIT ( ) );
#61 = CLOSED_SHELL ( 'NONE', ( #105, #153, #119, #88 ) ) ;
#62 = FACE_OUTER_BOUND ( 'NONE', #18, .T. ) ;
#63 = APPROVAL_DATE_TIME ( #129, #164 ) ;
#64 = CC_DESIGN_DATE_AND_TIME_ASSIGNMENT ( #41, #148, ( #79 ) ) ;
#65 = CIRCLE ( 'NONE', #95, 12.50000000000000000 ) ;
#66 = EDGE_LOOP ( 'NONE', ( #15 ) ) ;
#67 = APPROVAL ( #163, 'UNSPECIFIED' ) ;
#68 = LOCAL_TIME ( 13, 59, 33.00000000000000000, #159 ) ;
#69 = FACE_OUTER_BOUND ( 'NONE', #6, .T. ) ;
#70 = FACE_OUTER_BOUND ( 'NONE', #104, .T. ) ;
#71 = PERSON_AND_ORGANIZATION_ROLE ( 'design_supplier' ) ;
#72 = ORIENTED_EDGE ( 'NONE', *, *, #143, .T. ) ;
#73 = CARTESIAN_POINT ( 'NONE',  ( 1.396592535537226521E-15, -2.449293598294658590E-16, 0.3999999999999923062 ) ) ;
#74 = PERSON_AND_ORGANIZATION_ROLE ( 'creator' ) ;
#75 = CYLINDRICAL_SURFACE ( 'NONE', #167, 4.000000000000000000 ) ;
#76 = APPROVAL_ROLE ( '' ) ;
#77 = CC_DESIGN_APPROVAL ( #164, ( #52 ) ) ;
#78 = AXIS2_PLACEMENT_3D ( 'NONE', #48, #160, #99 ) ;
#79 = SECURITY_CLASSIFICATION ( '', '', #17 ) ;
#80 = CIRCLE ( 'NONE', #10, 12.50000000000000000 ) ;
#81 = CARTESIAN_POINT ( 'NONE',  ( -2.672394653685598805E-29, 4.686749320818302649E-30, -7.654042494670956226E-15 ) ) ;
#82 = APPLICATION_PROTOCOL_DEFINITION ( 'international standard', 'config_control_design', 1994, #53 ) ;
#83 = CALENDAR_DATE ( 2021, 6, 12 ) ;
#84 =( NAMED_UNIT ( * ) PLANE_ANGLE_UNIT ( ) SI_UNIT ( $, .RADIAN. ) );
#85 = CARTESIAN_POINT ( 'NONE',  ( 0.0000000000000000000, 0.0000000000000000000, 0.0000000000000000000 ) ) ;
#86 = PERSON_AND_ORGANIZATION ( #12, #90 ) ;
#87 = PRODUCT_RELATED_PRODUCT_CATEGORY ( 'detail', '', ( #13 ) ) ;
#88 = ADVANCED_FACE ( 'NONE', ( #21, #70 ), #75, .F. ) ;
#89 = AXIS2_PLACEMENT_3D ( 'NONE', #137, #16, #28 ) ;
#90 = ORGANIZATION ( 'UNSPECIFIED', 'UNSPECIFIED', '' ) ;
#91 = DESIGN_CONTEXT ( 'detailed design', #53, 'design' ) ;
#92 = VERTEX_POINT ( 'NONE', #40 ) ;
#93 = PERSON_AND_ORGANIZATION_ROLE ( 'creator' ) ;
#94 = CC_DESIGN_PERSON_AND_ORGANIZATION_ASSIGNMENT ( #100, #117, ( #13 ) ) ;
#95 = AXIS2_PLACEMENT_3D ( 'NONE', #81, #96, #150 ) ;
#96 = DIRECTION ( 'NONE',  ( -3.491481338843133355E-15, 6.123233995736764310E-16, -1.000000000000000000 ) ) ;
#97 = DIRECTION ( 'NONE',  ( 0.0000000000000000000, 0.0000000000000000000, 1.000000000000000000 ) ) ;
#98 = APPROVAL_PERSON_ORGANIZATION ( #19, #164, #76 ) ;
#99 = DIRECTION ( 'NONE',  ( -2.137915722948478778E-30, -1.000000000000000000, -6.123233995736764310E-16 ) ) ;
#100 = PERSON_AND_ORGANIZATION ( #12, #90 ) ;
#101 = FACE_OUTER_BOUND ( 'NONE', #66, .T. ) ;
#102 = APPROVAL_DATE_TIME ( #136, #67 ) ;
#103 = LOCAL_TIME ( 13, 59, 33.00000000000000000, #157 ) ;
#104 = EDGE_LOOP ( 'NONE', ( #130 ) ) ;
#105 = ADVANCED_FACE ( 'NONE', ( #123, #158 ), #45, .T. ) ;
#106 = ORIENTED_EDGE ( 'NONE', *, *, #143, .F. ) ;
#107 = SHAPE_DEFINITION_REPRESENTATION ( #47, #11 ) ;
#108 = AXIS2_PLACEMENT_3D ( 'NONE', #34, #42, #162 ) ;
#109 = DIRECTION ( 'NONE',  ( -3.491481338843133355E-15, 6.123233995736764310E-16, -1.000000000000000000 ) ) ;
#110 = CALENDAR_DATE ( 2021, 6, 12 ) ;
#111 = ORIENTED_EDGE ( 'NONE', *, *, #50, .T. ) ;
#112 = APPROVAL_ROLE ( '' ) ;
#113 = DIRECTION ( 'NONE',  ( -3.491481338843133355E-15, 6.123233995736764310E-16, -1.000000000000000000 ) ) ;
#114 = COORDINATED_UNIVERSAL_TIME_OFFSET ( 1, 0, .AHEAD. ) ;
#115 = AXIS2_PLACEMENT_3D ( 'NONE', #85, #32, #7 ) ;
#116 = DIRECTION ( 'NONE',  ( 2.118522938825959088E-30, 1.000000000000000000, 6.098637220230961455E-16 ) ) ;
#117 = PERSON_AND_ORGANIZATION_ROLE ( 'design_owner' ) ;
#118 = CC_DESIGN_PERSON_AND_ORGANIZATION_ASSIGNMENT ( #152, #93, ( #52 ) ) ;
#119 = ADVANCED_FACE ( 'NONE', ( #139, #62 ), #3, .T. ) ;
#120 = ORIENTED_EDGE ( 'NONE', *, *, #168, .F. ) ;
#121 = CYLINDRICAL_SURFACE ( 'NONE', #115, 12.50000000000000000 ) ;
#122 = PERSON_AND_ORGANIZATION ( #12, #90 ) ;
#123 = FACE_OUTER_BOUND ( 'NONE', #133, .T. ) ;
#124 = COORDINATED_UNIVERSAL_TIME_OFFSET ( 1, 0, .AHEAD. ) ;
#125 = DATE_AND_TIME ( #83, #68 ) ;
#126 = EDGE_LOOP ( 'NONE', ( #36 ) ) ;
#127 = DIRECTION ( 'NONE',  ( -3.491481338843133355E-15, 6.123233995736764310E-16, -1.000000000000000000 ) ) ;
#128 = CARTESIAN_POINT ( 'NONE',  ( 0.0000000000000000000, 0.0000000000000000000, 0.0000000000000000000 ) ) ;
#129 = DATE_AND_TIME ( #138, #44 ) ;
#130 = ORIENTED_EDGE ( 'NONE', *, *, #50, .F. ) ;
#131 = UNCERTAINTY_MEASURE_WITH_UNIT (LENGTH_MEASURE( 1.000000000000000082E-05 ), #59, 'distance_accuracy_value', 'NONE');
#132 = CC_DESIGN_APPROVAL ( #67, ( #4 ) ) ;
#133 = EDGE_LOOP ( 'NONE', ( #72 ) ) ;
#134 = APPROVAL ( #58, 'UNSPECIFIED' ) ;
#135 = CARTESIAN_POINT ( 'NONE',  ( 1.396592535537253934E-15, 4.000000000000000888, 0.4000000000000001887 ) ) ;
#136 = DATE_AND_TIME ( #43, #103 ) ;
#137 = CARTESIAN_POINT ( 'NONE',  ( -8.551662891793915111E-30, 1.499759782661856820E-30, -2.449293598294705724E-15 ) ) ;
#138 = CALENDAR_DATE ( 2021, 6, 12 ) ;
#139 = FACE_BOUND ( 'NONE', #20, .T. ) ;
#140 = PERSON_AND_ORGANIZATION ( #12, #90 ) ;
#141 = DIRECTION ( 'NONE',  ( 2.141634098158606269E-30, 1.000000000000000000, 6.114900252818245008E-16 ) ) ;
#142 = MECHANICAL_CONTEXT ( 'NONE', #154, 'mechanical' ) ;
#143 = EDGE_CURVE ( 'NONE', #23, #23, #65, .T. ) ;
#144 = LOCAL_TIME ( 13, 59, 33.00000000000000000, #124 ) ;
#145 = MANIFOLD_SOLID_BREP ( 'Corps-Déplacer/Copier1', #61 ) ;
#146 = APPROVAL_PERSON_ORGANIZATION ( #140, #67, #33 ) ;
#147 = EDGE_LOOP ( 'NONE', ( #55 ) ) ;
#148 = DATE_TIME_ROLE ( 'classification_date' ) ;
#149 = CARTESIAN_POINT ( 'NONE',  ( 1.368455531567204171E-45, 4.000000000000000000, 0.0000000000000000000 ) ) ;
#150 = DIRECTION ( 'NONE',  ( 2.137915722948479128E-30, 1.000000000000000000, 6.123233995736765296E-16 ) ) ;
#151 = DATE_AND_TIME ( #161, #27 ) ;
#152 = PERSON_AND_ORGANIZATION ( #12, #90 ) ;
#153 = ADVANCED_FACE ( 'NONE', ( #101, #69 ), #121, .T. ) ;
#154 = APPLICATION_CONTEXT ( 'configuration controlled 3d designs of mechanical parts and assemblies' ) ;
#155 = VERTEX_POINT ( 'NONE', #135 ) ;
#156 = CARTESIAN_POINT ( 'NONE',  ( 0.0000000000000000000, 12.50000000000000000, 0.0000000000000000000 ) ) ;
#157 = COORDINATED_UNIVERSAL_TIME_OFFSET ( 1, 0, .AHEAD. ) ;
#158 = FACE_BOUND ( 'NONE', #126, .T. ) ;
#159 = COORDINATED_UNIVERSAL_TIME_OFFSET ( 1, 0, .AHEAD. ) ;
#160 = DIRECTION ( 'NONE',  ( 3.491481338843133355E-15, -6.123233995736764310E-16, 1.000000000000000000 ) ) ;
#161 = CALENDAR_DATE ( 2021, 6, 12 ) ;
#162 = DIRECTION ( 'NONE',  ( 2.137915722948478778E-30, 1.000000000000000000, 6.123233995736764310E-16 ) ) ;
#163 = APPROVAL_STATUS ( 'not_yet_approved' ) ;
#164 = APPROVAL ( #24, 'UNSPECIFIED' ) ;
#165 = AXIS2_PLACEMENT_3D ( 'NONE', #8, #127, #116 ) ;
#166 = APPROVAL_PERSON_ORGANIZATION ( #5, #134, #112 ) ;
#167 = AXIS2_PLACEMENT_3D ( 'NONE', #128, #109, #57 ) ;
#168 = EDGE_CURVE ( 'NONE', #92, #92, #80, .T. ) ;
#169 = AXIS2_PLACEMENT_3D ( 'NONE', #46, #97, #9 ) ;
ENDSEC;
END-ISO-10303-21;
