ISO-10303-21;
HEADER;
FILE_DESCRIPTION (( 'STEP AP203' ),
    '1' );
FILE_NAME ('37588.step',
    '2021-11-17T09:16:09',
    ( '' ),
    ( '' ),
    'SwSTEP 2.0',
    'SolidWorks 2019',
    '' );
FILE_SCHEMA (( 'CONFIG_CONTROL_DESIGN' ));
ENDSEC;

DATA;
#1 = PERSON_AND_ORGANIZATION_ROLE ( 'classification_officer' ) ;
#2 = ORIENTED_EDGE ( 'NONE', *, *, #11, .F. ) ;
#3 = APPROVAL_STATUS ( 'not_yet_approved' ) ;
#4 =( NAMED_UNIT ( * ) SI_UNIT ( $, .STERADIAN. ) SOLID_ANGLE_UNIT ( ) );
#5 = CARTESIAN_POINT ( 'NONE',  ( -4.167288764085502770E-30, 1.453656063335171267E-31, -1.193558939503394514E-15 ) ) ;
#6 = CALENDAR_DATE ( 2021, 17, 11 ) ;
#7 = CYLINDRICAL_SURFACE ( 'NONE', #200, 10.00000000000000178 ) ;
#8 = CARTESIAN_POINT ( 'NONE',  ( 3.631140592396858689E-13, -1.273632671113247592E-14, 104.0000000000000000 ) ) ;
#9 = DIRECTION ( 'NONE',  ( 3.491481338843133355E-15, -1.217917285207545432E-16, 1.000000000000000000 ) ) ;
#10 = CARTESIAN_POINT ( 'NONE',  ( 3.631140592396858689E-13, 8.999999999999987566, 104.0000000000000000 ) ) ;
#11 = EDGE_CURVE ( 'NONE', #145, #145, #190, .T. ) ;
#12 =( LENGTH_UNIT ( ) NAMED_UNIT ( * ) SI_UNIT ( .MILLI., .METRE. ) );
#13 = CC_DESIGN_PERSON_AND_ORGANIZATION_ASSIGNMENT ( #14, #56, ( #202 ) ) ;
#14 = PERSON_AND_ORGANIZATION ( #121, #45 ) ;
#15 = EDGE_LOOP ( 'NONE', ( #117 ) ) ;
#16 = CALENDAR_DATE ( 2021, 17, 11 ) ;
#17 = AXIS2_PLACEMENT_3D ( 'NONE', #223, #27, #108 ) ;
#18 = AXIS2_PLACEMENT_3D ( 'NONE', #193, #109, #169 ) ;
#19 = CARTESIAN_POINT ( 'NONE',  ( 0.0000000000000000000, 0.0000000000000000000, 0.0000000000000000000 ) ) ;
#20 = EDGE_CURVE ( 'NONE', #98, #98, #147, .T. ) ;
#21 = DIRECTION ( 'NONE',  ( -3.491481338843133355E-15, 1.224646799147353454E-16, -1.000000000000000000 ) ) ;
#22 = APPROVAL_STATUS ( 'not_yet_approved' ) ;
#23 = FACE_BOUND ( 'NONE', #69, .T. ) ;
#24 = APPROVAL_DATE_TIME ( #50, #150 ) ;
#25 = CARTESIAN_POINT ( 'NONE',  ( 3.631140592396858689E-13, 6.748919021978343909E-32, 104.0000000000000000 ) ) ;
#26 = CARTESIAN_POINT ( 'NONE',  ( 1.396592535537253342E-13, 7.498798913309283660E-32, 40.00000000000000000 ) ) ;
#27 = DIRECTION ( 'NONE',  ( -3.491481338843133355E-15, 1.224646799147353454E-16, -1.000000000000000000 ) ) ;
#28 = AXIS2_PLACEMENT_3D ( 'NONE', #131, #215, #181 ) ;
#29 = APPROVAL_PERSON_ORGANIZATION ( #85, #168, #159 ) ;
#30 = CC_DESIGN_PERSON_AND_ORGANIZATION_ASSIGNMENT ( #122, #42, ( #185 ) ) ;
#31 = CARTESIAN_POINT ( 'NONE',  ( -8.334577528171004140E-30, -9.799999999999998934, -2.387117879006789028E-15 ) ) ;
#32 = ORIENTED_EDGE ( 'NONE', *, *, #20, .F. ) ;
#33 = CARTESIAN_POINT ( 'NONE',  ( 1.396592535537253342E-13, 9.999999999999994671, 40.00000000000000000 ) ) ;
#34 = CARTESIAN_POINT ( 'NONE',  ( 1.396592535537253342E-13, -4.898587196589413815E-15, 40.00000000000000000 ) ) ;
#35 = DATE_TIME_ROLE ( 'creation_date' ) ;
#36 = EDGE_CURVE ( 'NONE', #199, #199, #107, .T. ) ;
#37 = ADVANCED_FACE ( 'NONE', ( #186 ), #55, .F. ) ;
#38 = ORIENTED_EDGE ( 'NONE', *, *, #36, .F. ) ;
#39 = DIRECTION ( 'NONE',  ( -3.491481338843133355E-15, 1.224646799147353454E-16, -1.000000000000000000 ) ) ;
#40 = COORDINATED_UNIVERSAL_TIME_OFFSET ( 1, 0, .AHEAD. ) ;
#41 = PLANE ( 'NONE',  #28 ) ;
#42 = PERSON_AND_ORGANIZATION_ROLE ( 'creator' ) ;
#43 = FACE_OUTER_BOUND ( 'NONE', #66, .T. ) ;
#44 = FACE_OUTER_BOUND ( 'NONE', #15, .T. ) ;
#45 = ORGANIZATION ( 'UNSPECIFIED', 'UNSPECIFIED', '' ) ;
#46 = AXIS2_PLACEMENT_3D ( 'NONE', #210, #142, #61 ) ;
#47 = PRODUCT_RELATED_PRODUCT_CATEGORY ( 'detail', '', ( #218 ) ) ;
#48 = CC_DESIGN_APPROVAL ( #168, ( #185 ) ) ;
#49 = EDGE_LOOP ( 'NONE', ( #171 ) ) ;
#50 = DATE_AND_TIME ( #205, #59 ) ;
#51 = EDGE_LOOP ( 'NONE', ( #65 ) ) ;
#52 = PERSON_AND_ORGANIZATION ( #121, #45 ) ;
#53 = ORIENTED_EDGE ( 'NONE', *, *, #91, .F. ) ;
#54 = DATE_AND_TIME ( #209, #151 ) ;
#55 = PLANE ( 'NONE',  #167 ) ;
#56 = PERSON_AND_ORGANIZATION_ROLE ( 'creator' ) ;
#57 = AXIS2_PLACEMENT_3D ( 'NONE', #87, #63, #74 ) ;
#58 = FACE_OUTER_BOUND ( 'NONE', #51, .T. ) ;
#59 = LOCAL_TIME ( 10, 16, 9.000000000000000000, #139 ) ;
#60 = ADVANCED_FACE ( 'NONE', ( #130, #217 ), #123, .T. ) ;
#61 = DIRECTION ( 'NONE',  ( 0.0000000000000000000, 1.000000000000000000, 0.0000000000000000000 ) ) ;
#62 = CC_DESIGN_DATE_AND_TIME_ASSIGNMENT ( #174, #82, ( #191 ) ) ;
#63 = DIRECTION ( 'NONE',  ( 3.491481338843133355E-15, -1.217917285207545432E-16, 1.000000000000000000 ) ) ;
#64 = AXIS2_PLACEMENT_3D ( 'NONE', #146, #9, #164 ) ;
#65 = ORIENTED_EDGE ( 'NONE', *, *, #148, .F. ) ;
#66 = EDGE_LOOP ( 'NONE', ( #120 ) ) ;
#67 = APPROVAL_ROLE ( '' ) ;
#68 = EDGE_LOOP ( 'NONE', ( #38 ) ) ;
#69 = EDGE_LOOP ( 'NONE', ( #115 ) ) ;
#70 = DESIGN_CONTEXT ( 'detailed design', #129, 'design' ) ;
#71 = PLANE ( 'NONE',  #83 ) ;
#72 = CARTESIAN_POINT ( 'NONE',  ( 0.0000000000000000000, 0.0000000000000000000, 0.0000000000000000000 ) ) ;
#73 = DIRECTION ( 'NONE',  ( -3.491481338843133355E-15, 1.224646799147353454E-16, -1.000000000000000000 ) ) ;
#74 = DIRECTION ( 'NONE',  ( -4.237045877651918877E-31, -1.000000000000000000, -1.219727444046192488E-16 ) ) ;
#75 = LOCAL_TIME ( 10, 16, 9.000000000000000000, #40 ) ;
#76 = VERTEX_POINT ( 'NONE', #33 ) ;
#77 = CC_DESIGN_APPROVAL ( #86, ( #202 ) ) ;
#78 = ADVANCED_FACE ( 'NONE', ( #58 ), #166, .T. ) ;
#79 = SECURITY_CLASSIFICATION_LEVEL ( 'unclassified' ) ;
#80 =( GEOMETRIC_REPRESENTATION_CONTEXT ( 3 ) GLOBAL_UNCERTAINTY_ASSIGNED_CONTEXT ( ( #144 ) ) GLOBAL_UNIT_ASSIGNED_CONTEXT ( ( #12, #102, #4 ) ) REPRESENTATION_CONTEXT ( 'NONE', 'WORKASPACE' ) );
#81 = EDGE_LOOP ( 'NONE', ( #138 ) ) ;
#82 = DATE_TIME_ROLE ( 'classification_date' ) ;
#83 = AXIS2_PLACEMENT_3D ( 'NONE', #26, #125, #160 ) ;
#84 = EDGE_LOOP ( 'NONE', ( #2 ) ) ;
#85 = PERSON_AND_ORGANIZATION ( #121, #45 ) ;
#86 = APPROVAL ( #22, 'UNSPECIFIED' ) ;
#87 = CARTESIAN_POINT ( 'NONE',  ( 6.982962677686234170E-16, -2.435834570415079525E-17, 0.1999999999999990674 ) ) ;
#88 = APPROVAL_ROLE ( '' ) ;
#89 = FACE_OUTER_BOUND ( 'NONE', #206, .T. ) ;
#90 = CARTESIAN_POINT ( 'NONE',  ( 1.396592535537253342E-13, 7.498798913309283660E-32, 40.00000000000000000 ) ) ;
#91 = EDGE_CURVE ( 'NONE', #157, #157, #112, .T. ) ;
#92 = ADVANCED_FACE ( 'NONE', ( #195, #184 ), #170, .T. ) ;
#93 = FACE_OUTER_BOUND ( 'NONE', #68, .T. ) ;
#94 = CIRCLE ( 'NONE', #96, 9.000000000000000000 ) ;
#95 = DIRECTION ( 'NONE',  ( 3.491481338843133355E-15, -1.224646799147353454E-16, 1.000000000000000000 ) ) ;
#96 = AXIS2_PLACEMENT_3D ( 'NONE', #8, #73, #149 ) ;
#97 = LOCAL_TIME ( 10, 16, 9.000000000000000000, #101 ) ;
#98 = VERTEX_POINT ( 'NONE', #132 ) ;
#99 = DIRECTION ( 'NONE',  ( -3.491481338843133355E-15, 1.224646799147353454E-16, -1.000000000000000000 ) ) ;
#100 = VERTEX_POINT ( 'NONE', #10 ) ;
#101 = COORDINATED_UNIVERSAL_TIME_OFFSET ( 1, 0, .AHEAD. ) ;
#102 =( NAMED_UNIT ( * ) PLANE_ANGLE_UNIT ( ) SI_UNIT ( $, .RADIAN. ) );
#103 = APPLICATION_PROTOCOL_DEFINITION ( 'international standard', 'config_control_design', 1994, #129 ) ;
#104 = DIRECTION ( 'NONE',  ( 4.275831445896959482E-31, 1.000000000000000000, 1.224646799147353700E-16 ) ) ;
#105 = DATE_AND_TIME ( #176, #75 ) ;
#106 = DIRECTION ( 'NONE',  ( 4.275831445896959482E-31, 1.000000000000000000, 1.224646799147353454E-16 ) ) ;
#107 = CIRCLE ( 'NONE', #136, 9.799999999999998934 ) ;
#108 = DIRECTION ( 'NONE',  ( 0.0000000000000000000, 1.000000000000000000, 0.0000000000000000000 ) ) ;
#109 = DIRECTION ( 'NONE',  ( -3.491481338843133355E-15, 1.224646799147353454E-16, -1.000000000000000000 ) ) ;
#110 = FACE_OUTER_BOUND ( 'NONE', #84, .T. ) ;
#111 = AXIS2_PLACEMENT_3D ( 'NONE', #19, #158, #140 ) ;
#112 = CIRCLE ( 'NONE', #64, 10.00000000000000000 ) ;
#113 = ADVANCED_FACE ( 'NONE', ( #43 ), #71, .F. ) ;
#114 = CARTESIAN_POINT ( 'NONE',  ( 6.982962677686191769E-16, -10.00000000000000000, 0.1999999999999978462 ) ) ;
#115 = ORIENTED_EDGE ( 'NONE', *, *, #196, .T. ) ;
#116 = MECHANICAL_CONTEXT ( 'NONE', #182, 'mechanical' ) ;
#117 = ORIENTED_EDGE ( 'NONE', *, *, #20, .T. ) ;
#118 = PERSON_AND_ORGANIZATION_ROLE ( 'design_owner' ) ;
#119 = AXIS2_PLACEMENT_3D ( 'NONE', #90, #95, #128 ) ;
#120 = ORIENTED_EDGE ( 'NONE', *, *, #11, .T. ) ;
#121 = PERSON ( 'UNSPECIFIED', 'UNSPECIFIED', 'UNSPECIFIED', ('UNSPECIFIED'), ('UNSPECIFIED'), ('UNSPECIFIED') ) ;
#122 = PERSON_AND_ORGANIZATION ( #121, #45 ) ;
#123 = CYLINDRICAL_SURFACE ( 'NONE', #18, 10.00000000000000000 ) ;
#124 = PERSON_AND_ORGANIZATION ( #121, #45 ) ;
#125 = DIRECTION ( 'NONE',  ( 3.491481338843133355E-15, -1.224646799147353454E-16, 1.000000000000000000 ) ) ;
#126 = CONICAL_SURFACE ( 'NONE', #133, 10.00000000000000178, 0.7853981633974491672 ) ;
#127 = APPROVAL_PERSON_ORGANIZATION ( #156, #150, #67 ) ;
#128 = DIRECTION ( 'NONE',  ( -4.275831445896959482E-31, -1.000000000000000000, -1.224646799147353454E-16 ) ) ;
#129 = APPLICATION_CONTEXT ( 'configuration controlled 3d designs of mechanical parts and assemblies' ) ;
#130 = FACE_OUTER_BOUND ( 'NONE', #49, .T. ) ;
#131 = CARTESIAN_POINT ( 'NONE',  ( -2.137915722948479478E-30, 7.498798913309291323E-32, -6.123233995736767268E-16 ) ) ;
#132 = CARTESIAN_POINT ( 'NONE',  ( 3.596225779008426977E-13, 9.999999999999989342, 103.0000000000000000 ) ) ;
#133 = AXIS2_PLACEMENT_3D ( 'NONE', #197, #183, #163 ) ;
#134 = CC_DESIGN_SECURITY_CLASSIFICATION ( #191, ( #202 ) ) ;
#135 = PRODUCT_DEFINITION_SHAPE ( 'NONE', 'NONE',  #185 ) ;
#136 = AXIS2_PLACEMENT_3D ( 'NONE', #5, #179, #214 ) ;
#137 = CC_DESIGN_PERSON_AND_ORGANIZATION_ASSIGNMENT ( #153, #1, ( #191 ) ) ;
#138 = ORIENTED_EDGE ( 'NONE', *, *, #36, .T. ) ;
#139 = COORDINATED_UNIVERSAL_TIME_OFFSET ( 1, 0, .AHEAD. ) ;
#140 = DIRECTION ( 'NONE',  ( 1.000000000000000000, 0.0000000000000000000, 0.0000000000000000000 ) ) ;
#141 = COORDINATED_UNIVERSAL_TIME_OFFSET ( 1, 0, .AHEAD. ) ;
#142 = DIRECTION ( 'NONE',  ( -3.491481338843133355E-15, 1.224646799147353454E-16, -1.000000000000000000 ) ) ;
#143 = DATE_AND_TIME ( #6, #162 ) ;
#144 = UNCERTAINTY_MEASURE_WITH_UNIT (LENGTH_MEASURE( 1.000000000000000082E-05 ), #12, 'distance_accuracy_value', 'NONE');
#145 = VERTEX_POINT ( 'NONE', #212 ) ;
#146 = CARTESIAN_POINT ( 'NONE',  ( 6.982962677686234170E-16, -2.435834570415079525E-17, 0.1999999999999990674 ) ) ;
#147 = CIRCLE ( 'NONE', #17, 10.00000000000000178 ) ;
#148 = EDGE_CURVE ( 'NONE', #76, #76, #222, .T. ) ;
#149 = DIRECTION ( 'NONE',  ( 0.0000000000000000000, 1.000000000000000000, 0.0000000000000000000 ) ) ;
#150 = APPROVAL ( #3, 'UNSPECIFIED' ) ;
#151 = LOCAL_TIME ( 10, 16, 9.000000000000000000, #141 ) ;
#152 = DIRECTION ( 'NONE',  ( 0.0000000000000000000, 1.000000000000000000, 0.0000000000000000000 ) ) ;
#153 = PERSON_AND_ORGANIZATION ( #121, #45 ) ;
#154 = CLOSED_SHELL ( 'NONE', ( #60, #78, #92, #188 ) ) ;
#155 = APPROVAL_PERSON_ORGANIZATION ( #180, #86, #88 ) ;
#156 = PERSON_AND_ORGANIZATION ( #121, #45 ) ;
#157 = VERTEX_POINT ( 'NONE', #114 ) ;
#158 = DIRECTION ( 'NONE',  ( 0.0000000000000000000, 0.0000000000000000000, 1.000000000000000000 ) ) ;
#159 = APPROVAL_ROLE ( '' ) ;
#160 = DIRECTION ( 'NONE',  ( -4.275831445896959482E-31, -1.000000000000000000, -1.224646799147353454E-16 ) ) ;
#161 = COORDINATED_UNIVERSAL_TIME_OFFSET ( 1, 0, .AHEAD. ) ;
#162 = LOCAL_TIME ( 10, 16, 9.000000000000000000, #161 ) ;
#163 = DIRECTION ( 'NONE',  ( 0.0000000000000000000, 1.000000000000000000, 0.0000000000000000000 ) ) ;
#164 = DIRECTION ( 'NONE',  ( -4.237045877651918877E-31, -1.000000000000000000, -1.219727444046192488E-16 ) ) ;
#165 = ADVANCED_BREP_SHAPE_REPRESENTATION ( '37588', ( #208, #216, #111 ), #80 ) ;
#166 = PLANE ( 'NONE',  #119 ) ;
#167 = AXIS2_PLACEMENT_3D ( 'NONE', #25, #21, #106 ) ;
#168 = APPROVAL ( #178, 'UNSPECIFIED' ) ;
#169 = DIRECTION ( 'NONE',  ( 4.275831445896958607E-31, 1.000000000000000000, 1.224646799147353454E-16 ) ) ;
#170 = CONICAL_SURFACE ( 'NONE', #57, 10.00000000000000000, 0.7853981633974489451 ) ;
#171 = ORIENTED_EDGE ( 'NONE', *, *, #148, .T. ) ;
#172 = PERSON_AND_ORGANIZATION_ROLE ( 'design_supplier' ) ;
#173 = EDGE_LOOP ( 'NONE', ( #53 ) ) ;
#174 = DATE_AND_TIME ( #16, #97 ) ;
#175 = CLOSED_SHELL ( 'NONE', ( #113, #221, #220, #37 ) ) ;
#176 = CALENDAR_DATE ( 2021, 17, 11 ) ;
#177 = ORIENTED_EDGE ( 'NONE', *, *, #196, .F. ) ;
#178 = APPROVAL_STATUS ( 'not_yet_approved' ) ;
#179 = DIRECTION ( 'NONE',  ( 3.491481338843133355E-15, -1.217917285207545432E-16, 1.000000000000000000 ) ) ;
#180 = PERSON_AND_ORGANIZATION ( #121, #45 ) ;
#181 = DIRECTION ( 'NONE',  ( 4.275831445896959482E-31, 1.000000000000000000, 1.224646799147353454E-16 ) ) ;
#182 = APPLICATION_CONTEXT ( 'configuration controlled 3d designs of mechanical parts and assemblies' ) ;
#183 = DIRECTION ( 'NONE',  ( -3.491481338843133355E-15, 1.224646799147353454E-16, -1.000000000000000000 ) ) ;
#184 = FACE_OUTER_BOUND ( 'NONE', #173, .T. ) ;
#185 = PRODUCT_DEFINITION ( 'UNKNOWN', '', #202, #70 ) ;
#186 = FACE_OUTER_BOUND ( 'NONE', #203, .T. ) ;
#187 = CC_DESIGN_APPROVAL ( #150, ( #191 ) ) ;
#188 = ADVANCED_FACE ( 'NONE', ( #93 ), #41, .T. ) ;
#189 = APPROVAL_DATE_TIME ( #54, #168 ) ;
#190 = CIRCLE ( 'NONE', #213, 10.00000000000000000 ) ;
#191 = SECURITY_CLASSIFICATION ( '', '', #79 ) ;
#192 = ORIENTED_EDGE ( 'NONE', *, *, #91, .T. ) ;
#193 = CARTESIAN_POINT ( 'NONE',  ( 0.0000000000000000000, 0.0000000000000000000, 0.0000000000000000000 ) ) ;
#194 = SHAPE_DEFINITION_REPRESENTATION ( #135, #165 ) ;
#195 = FACE_BOUND ( 'NONE', #81, .T. ) ;
#196 = EDGE_CURVE ( 'NONE', #100, #100, #94, .T. ) ;
#197 = CARTESIAN_POINT ( 'NONE',  ( 3.596225779008426977E-13, -1.261386203121773919E-14, 103.0000000000000000 ) ) ;
#198 = CC_DESIGN_PERSON_AND_ORGANIZATION_ASSIGNMENT ( #124, #172, ( #202 ) ) ;
#199 = VERTEX_POINT ( 'NONE', #31 ) ;
#200 = AXIS2_PLACEMENT_3D ( 'NONE', #72, #39, #104 ) ;
#201 = CC_DESIGN_PERSON_AND_ORGANIZATION_ASSIGNMENT ( #52, #118, ( #218 ) ) ;
#202 = PRODUCT_DEFINITION_FORMATION_WITH_SPECIFIED_SOURCE ( 'ANY', '', #218, .NOT_KNOWN. ) ;
#203 = EDGE_LOOP ( 'NONE', ( #177 ) ) ;
#204 = EDGE_LOOP ( 'NONE', ( #192 ) ) ;
#205 = CALENDAR_DATE ( 2021, 17, 11 ) ;
#206 = EDGE_LOOP ( 'NONE', ( #32 ) ) ;
#207 = APPLICATION_PROTOCOL_DEFINITION ( 'international standard', 'config_control_design', 1994, #182 ) ;
#208 = MANIFOLD_SOLID_BREP ( 'Corps-Déplacer/Copier1[1]', #175 ) ;
#209 = CALENDAR_DATE ( 2021, 17, 11 ) ;
#210 = CARTESIAN_POINT ( 'NONE',  ( 1.396592535537253342E-13, -4.898587196589413815E-15, 40.00000000000000000 ) ) ;
#211 = APPROVAL_DATE_TIME ( #143, #86 ) ;
#212 = CARTESIAN_POINT ( 'NONE',  ( 1.396592535537253342E-13, 9.999999999999994671, 40.00000000000000000 ) ) ;
#213 = AXIS2_PLACEMENT_3D ( 'NONE', #34, #99, #152 ) ;
#214 = DIRECTION ( 'NONE',  ( -4.252335473556634944E-31, -1.000000000000000000, -1.217917285207545432E-16 ) ) ;
#215 = DIRECTION ( 'NONE',  ( -3.491481338843133355E-15, 1.224646799147353454E-16, -1.000000000000000000 ) ) ;
#216 = MANIFOLD_SOLID_BREP ( 'Corps-Déplacer/Copier1[2]', #154 ) ;
#217 = FACE_OUTER_BOUND ( 'NONE', #204, .T. ) ;
#218 = PRODUCT ( '37588', '37588', '', ( #116 ) ) ;
#219 = CC_DESIGN_DATE_AND_TIME_ASSIGNMENT ( #105, #35, ( #185 ) ) ;
#220 = ADVANCED_FACE ( 'NONE', ( #23, #89 ), #126, .T. ) ;
#221 = ADVANCED_FACE ( 'NONE', ( #44, #110 ), #7, .T. ) ;
#222 = CIRCLE ( 'NONE', #46, 10.00000000000000000 ) ;
#223 = CARTESIAN_POINT ( 'NONE',  ( 3.596225779008426977E-13, -1.261386203121773919E-14, 103.0000000000000000 ) ) ;
ENDSEC;
END-ISO-10303-21;
