ISO-10303-21;
HEADER;
FILE_DESCRIPTION (( 'STEP AP203' ),
    '1' );
FILE_NAME ('37506.step',
    '2021-10-15T13:34:44',
    ( '' ),
    ( '' ),
    'SwSTEP 2.0',
    'SolidWorks 2019',
    '' );
FILE_SCHEMA (( 'CONFIG_CONTROL_DESIGN' ));
ENDSEC;

DATA;
#1 = DIRECTION ( 'NONE',  ( 4.275831445896958607E-31, 1.000000000000000000, 1.224646799147353207E-16 ) ) ;
#2 = CIRCLE ( 'NONE', #190, 0.6750000000000000444 ) ;
#3 = VERTEX_POINT ( 'NONE', #157 ) ;
#4 =( LENGTH_UNIT ( ) NAMED_UNIT ( * ) SI_UNIT ( .MILLI., .METRE. ) );
#5 = CC_DESIGN_PERSON_AND_ORGANIZATION_ASSIGNMENT ( #138, #197, ( #199 ) ) ;
#6 = DIRECTION ( 'NONE',  ( 4.275831445896958607E-31, 1.000000000000000000, 1.224646799147353207E-16 ) ) ;
#7 = CARTESIAN_POINT ( 'NONE',  ( 8.577868145635025169E-16, -3.008711131058387217E-17, 0.2456799081296884291 ) ) ;
#8 = ORIENTED_EDGE ( 'NONE', *, *, #24, .F. ) ;
#9 = PERSON_AND_ORGANIZATION ( #143, #126 ) ;
#10 = DIRECTION ( 'NONE',  ( -3.491481338843133355E-15, 1.224646799147353207E-16, -1.000000000000000000 ) ) ;
#11 = SHAPE_DEFINITION_REPRESENTATION ( #47, #101 ) ;
#12 = ORIENTED_EDGE ( 'NONE', *, *, #163, .T. ) ;
#13 = APPROVAL_PERSON_ORGANIZATION ( #76, #141, #120 ) ;
#14 = APPROVAL_DATE_TIME ( #77, #141 ) ;
#15 = CALENDAR_DATE ( 2021, 15, 10 ) ;
#16 = DIRECTION ( 'NONE',  ( -3.491481338843133355E-15, 1.224646799147353207E-16, -1.000000000000000000 ) ) ;
#17 = DATE_AND_TIME ( #91, #43 ) ;
#18 = AXIS2_PLACEMENT_3D ( 'NONE', #194, #111, #98 ) ;
#19 = FACE_OUTER_BOUND ( 'NONE', #133, .T. ) ;
#20 = CIRCLE ( 'NONE', #128, 0.6749999999999974909 ) ;
#21 = FACE_OUTER_BOUND ( 'NONE', #131, .T. ) ;
#22 = CLOSED_SHELL ( 'NONE', ( #109, #55, #60, #124 ) ) ;
#23 = DIRECTION ( 'NONE',  ( -3.491481338843133355E-15, 1.224646799147353207E-16, -1.000000000000000000 ) ) ;
#24 = EDGE_CURVE ( 'NONE', #3, #3, #139, .T. ) ;
#25 = CARTESIAN_POINT ( 'NONE',  ( 8.577868145635025169E-16, -3.008711131058387217E-17, 0.2456799081296884291 ) ) ;
#26 = DIRECTION ( 'NONE',  ( 0.0000000000000000000, 1.000000000000000000, 0.0000000000000000000 ) ) ;
#27 = EDGE_CURVE ( 'NONE', #154, #154, #84, .T. ) ;
#28 = FACE_OUTER_BOUND ( 'NONE', #102, .T. ) ;
#29 = PERSON_AND_ORGANIZATION_ROLE ( 'creator' ) ;
#30 = COORDINATED_UNIVERSAL_TIME_OFFSET ( 1, 0, .AHEAD. ) ;
#31 = APPLICATION_CONTEXT ( 'configuration controlled 3d designs of mechanical parts and assemblies' ) ;
#32 = AXIS2_PLACEMENT_3D ( 'NONE', #25, #38, #85 ) ;
#33 = VERTEX_POINT ( 'NONE', #142 ) ;
#34 = CARTESIAN_POINT ( 'NONE',  ( 3.491481338843133986E-14, -1.224646799147353454E-15, 10.00000000000000178 ) ) ;
#35 = FACE_OUTER_BOUND ( 'NONE', #115, .T. ) ;
#36 = CARTESIAN_POINT ( 'NONE',  ( 1.047444401652940007E-13, 3.561929483821856396E-33, 30.00000000000000000 ) ) ;
#37 = PRODUCT_DEFINITION ( 'UNKNOWN', '', #199, #175 ) ;
#38 = DIRECTION ( 'NONE',  ( -3.491481338843133355E-15, 1.224646799147353207E-16, -1.000000000000000000 ) ) ;
#39 = APPROVAL_PERSON_ORGANIZATION ( #200, #187, #59 ) ;
#40 = ORIENTED_EDGE ( 'NONE', *, *, #63, .T. ) ;
#41 = ORIENTED_EDGE ( 'NONE', *, *, #100, .F. ) ;
#42 = APPROVAL_STATUS ( 'not_yet_approved' ) ;
#43 = LOCAL_TIME ( 15, 34, 44.00000000000000000, #30 ) ;
#44 = APPROVAL_ROLE ( '' ) ;
#45 = DATE_AND_TIME ( #146, #50 ) ;
#46 = CLOSED_SHELL ( 'NONE', ( #93, #195, #150 ) ) ;
#47 = PRODUCT_DEFINITION_SHAPE ( 'NONE', 'NONE',  #37 ) ;
#48 = VERTEX_POINT ( 'NONE', #169 ) ;
#49 =( NAMED_UNIT ( * ) PLANE_ANGLE_UNIT ( ) SI_UNIT ( $, .RADIAN. ) );
#50 = LOCAL_TIME ( 15, 34, 44.00000000000000000, #179 ) ;
#51 = DIRECTION ( 'NONE',  ( -3.491481338843133355E-15, 1.224646799147353207E-16, -1.000000000000000000 ) ) ;
#52 = CARTESIAN_POINT ( 'NONE',  ( 3.491481338843133986E-14, 0.6749999999999963807, 10.00000000000000178 ) ) ;
#53 = APPROVAL_PERSON_ORGANIZATION ( #122, #116, #44 ) ;
#54 = ORIENTED_EDGE ( 'NONE', *, *, #100, .T. ) ;
#55 = ADVANCED_FACE ( 'NONE', ( #198, #75 ), #58, .T. ) ;
#56 = ORIENTED_EDGE ( 'NONE', *, *, #24, .T. ) ;
#57 = AXIS2_PLACEMENT_3D ( 'NONE', #134, #90, #147 ) ;
#58 = CYLINDRICAL_SURFACE ( 'NONE', #172, 0.6749999999999987121 ) ;
#59 = APPROVAL_ROLE ( '' ) ;
#60 = ADVANCED_FACE ( 'NONE', ( #28, #121 ), #62, .T. ) ;
#61 = PERSON_AND_ORGANIZATION_ROLE ( 'classification_officer' ) ;
#62 = CONICAL_SURFACE ( 'NONE', #66, 0.4750000000000000333, 0.7853981633974512766 ) ;
#63 = EDGE_CURVE ( 'NONE', #48, #48, #135, .T. ) ;
#64 = CARTESIAN_POINT ( 'NONE',  ( 1.047444401652940007E-13, 0.4749999999999963696, 30.00000000000000000 ) ) ;
#65 = PLANE ( 'NONE',  #80 ) ;
#66 = AXIS2_PLACEMENT_3D ( 'NONE', #108, #16, #148 ) ;
#67 = MANIFOLD_SOLID_BREP ( 'Corps-Déplacer/Copier1[2]', #46 ) ;
#68 = CC_DESIGN_PERSON_AND_ORGANIZATION_ASSIGNMENT ( #202, #119, ( #156 ) ) ;
#69 = DIRECTION ( 'NONE',  ( -4.279844320860546792E-31, -1.000000000000000000, -1.606225440719274502E-16 ) ) ;
#70 = PRODUCT_RELATED_PRODUCT_CATEGORY ( 'detail', '', ( #156 ) ) ;
#71 = DIRECTION ( 'NONE',  ( -3.491481338843133355E-15, 1.224646799147353207E-16, -1.000000000000000000 ) ) ;
#72 = AXIS2_PLACEMENT_3D ( 'NONE', #145, #10, #26 ) ;
#73 = COORDINATED_UNIVERSAL_TIME_OFFSET ( 1, 0, .AHEAD. ) ;
#74 = EDGE_LOOP ( 'NONE', ( #8 ) ) ;
#75 = FACE_OUTER_BOUND ( 'NONE', #176, .T. ) ;
#76 = PERSON_AND_ORGANIZATION ( #143, #126 ) ;
#77 = DATE_AND_TIME ( #15, #92 ) ;
#78 = APPROVAL_DATE_TIME ( #17, #116 ) ;
#79 = PLANE ( 'NONE',  #117 ) ;
#80 = AXIS2_PLACEMENT_3D ( 'NONE', #36, #71, #6 ) ;
#81 = VERTEX_POINT ( 'NONE', #52 ) ;
#82 = CARTESIAN_POINT ( 'NONE',  ( 3.491481338843133986E-14, 2.569960705150834943E-14, 10.00000000000000178 ) ) ;
#83 = CC_DESIGN_PERSON_AND_ORGANIZATION_ASSIGNMENT ( #9, #29, ( #37 ) ) ;
#84 = CIRCLE ( 'NONE', #72, 0.4750000000000000333 ) ;
#85 = DIRECTION ( 'NONE',  ( 4.279844320860546792E-31, 1.000000000000000000, 1.606225440719274502E-16 ) ) ;
#86 = CALENDAR_DATE ( 2021, 15, 10 ) ;
#87 = EDGE_LOOP ( 'NONE', ( #161 ) ) ;
#88 = APPLICATION_PROTOCOL_DEFINITION ( 'international standard', 'config_control_design', 1994, #149 ) ;
#89 = AXIS2_PLACEMENT_3D ( 'NONE', #7, #94, #69 ) ;
#90 = DIRECTION ( 'NONE',  ( 0.0000000000000000000, 0.0000000000000000000, 1.000000000000000000 ) ) ;
#91 = CALENDAR_DATE ( 2021, 15, 10 ) ;
#92 = LOCAL_TIME ( 15, 34, 44.00000000000000000, #162 ) ;
#93 = ADVANCED_FACE ( 'NONE', ( #35 ), #103, .T. ) ;
#94 = DIRECTION ( 'NONE',  ( 3.491481338843133355E-15, -1.224646799147353207E-16, 1.000000000000000000 ) ) ;
#95 = DIRECTION ( 'NONE',  ( 0.0000000000000000000, 1.000000000000000000, 0.0000000000000000000 ) ) ;
#96 = CC_DESIGN_SECURITY_CLASSIFICATION ( #159, ( #199 ) ) ;
#97 = DIRECTION ( 'NONE',  ( 3.491481338843133355E-15, -1.224646799147353207E-16, 1.000000000000000000 ) ) ;
#98 = DIRECTION ( 'NONE',  ( 4.275831445896958607E-31, 1.000000000000000000, 1.224646799147353207E-16 ) ) ;
#99 = CC_DESIGN_APPROVAL ( #187, ( #37 ) ) ;
#100 = EDGE_CURVE ( 'NONE', #33, #33, #2, .T. ) ;
#101 = ADVANCED_BREP_SHAPE_REPRESENTATION ( '37506', ( #129, #67, #57 ), #178 ) ;
#102 = EDGE_LOOP ( 'NONE', ( #41 ) ) ;
#103 = CONICAL_SURFACE ( 'NONE', #89, 0.6749999999999963807, 1.221730476396026610 ) ;
#104 = ORIENTED_EDGE ( 'NONE', *, *, #163, .F. ) ;
#105 = DATE_AND_TIME ( #86, #186 ) ;
#106 = APPROVAL_DATE_TIME ( #105, #187 ) ;
#107 = CC_DESIGN_PERSON_AND_ORGANIZATION_ASSIGNMENT ( #132, #182, ( #199 ) ) ;
#108 = CARTESIAN_POINT ( 'NONE',  ( 1.047444401652940007E-13, -3.673940397442059178E-15, 30.00000000000000000 ) ) ;
#109 = ADVANCED_FACE ( 'NONE', ( #110 ), #170, .F. ) ;
#110 = FACE_OUTER_BOUND ( 'NONE', #114, .T. ) ;
#111 = DIRECTION ( 'NONE',  ( -3.491481338843133355E-15, 1.224646799147353207E-16, -1.000000000000000000 ) ) ;
#112 = CARTESIAN_POINT ( 'NONE',  ( 3.491481338843133986E-14, -1.224646799147353454E-15, 10.00000000000000178 ) ) ;
#113 = CARTESIAN_POINT ( 'NONE',  ( 1.040461438975253740E-13, -3.649447461459112464E-15, 29.80000000000000071 ) ) ;
#114 = EDGE_LOOP ( 'NONE', ( #40 ) ) ;
#115 = EDGE_LOOP ( 'NONE', ( #56 ) ) ;
#116 = APPROVAL ( #183, 'UNSPECIFIED' ) ;
#117 = AXIS2_PLACEMENT_3D ( 'NONE', #82, #97, #189 ) ;
#118 = CARTESIAN_POINT ( 'NONE',  ( 0.0000000000000000000, 0.0000000000000000000, 0.0000000000000000000 ) ) ;
#119 = PERSON_AND_ORGANIZATION_ROLE ( 'design_owner' ) ;
#120 = APPROVAL_ROLE ( '' ) ;
#121 = FACE_BOUND ( 'NONE', #180, .T. ) ;
#122 = PERSON_AND_ORGANIZATION ( #143, #126 ) ;
#123 = APPLICATION_PROTOCOL_DEFINITION ( 'international standard', 'config_control_design', 1994, #31 ) ;
#124 = ADVANCED_FACE ( 'NONE', ( #21 ), #65, .F. ) ;
#125 = DIRECTION ( 'NONE',  ( 0.0000000000000000000, 1.000000000000000000, 0.0000000000000000000 ) ) ;
#126 = ORGANIZATION ( 'UNSPECIFIED', 'UNSPECIFIED', '' ) ;
#127 = FACE_OUTER_BOUND ( 'NONE', #196, .T. ) ;
#128 = AXIS2_PLACEMENT_3D ( 'NONE', #34, #155, #95 ) ;
#129 = MANIFOLD_SOLID_BREP ( 'Corps-Déplacer/Copier1[1]', #22 ) ;
#130 = ORIENTED_EDGE ( 'NONE', *, *, #27, .F. ) ;
#131 = EDGE_LOOP ( 'NONE', ( #130 ) ) ;
#132 = PERSON_AND_ORGANIZATION ( #143, #126 ) ;
#133 = EDGE_LOOP ( 'NONE', ( #104 ) ) ;
#134 = CARTESIAN_POINT ( 'NONE',  ( 0.0000000000000000000, 0.0000000000000000000, 0.0000000000000000000 ) ) ;
#135 = CIRCLE ( 'NONE', #184, 0.6749999999999974909 ) ;
#136 = DIRECTION ( 'NONE',  ( -3.491481338843133355E-15, 1.224646799147353207E-16, -1.000000000000000000 ) ) ;
#137 = PERSON_AND_ORGANIZATION ( #143, #126 ) ;
#138 = PERSON_AND_ORGANIZATION ( #143, #126 ) ;
#139 = CIRCLE ( 'NONE', #32, 0.6749999999999963807 ) ;
#140 = FACE_OUTER_BOUND ( 'NONE', #74, .T. ) ;
#141 = APPROVAL ( #151, 'UNSPECIFIED' ) ;
#142 = CARTESIAN_POINT ( 'NONE',  ( 1.040461438975253740E-13, 0.6749999999999963807, 29.80000000000000071 ) ) ;
#143 = PERSON ( 'UNSPECIFIED', 'UNSPECIFIED', 'UNSPECIFIED', ('UNSPECIFIED'), ('UNSPECIFIED'), ('UNSPECIFIED') ) ;
#144 = UNCERTAINTY_MEASURE_WITH_UNIT (LENGTH_MEASURE( 1.000000000000000082E-05 ), #4, 'distance_accuracy_value', 'NONE');
#145 = CARTESIAN_POINT ( 'NONE',  ( 1.047444401652940007E-13, -3.673940397442059178E-15, 30.00000000000000000 ) ) ;
#146 = CALENDAR_DATE ( 2021, 15, 10 ) ;
#147 = DIRECTION ( 'NONE',  ( 1.000000000000000000, 0.0000000000000000000, 0.0000000000000000000 ) ) ;
#148 = DIRECTION ( 'NONE',  ( 0.0000000000000000000, 1.000000000000000000, 0.0000000000000000000 ) ) ;
#149 = APPLICATION_CONTEXT ( 'configuration controlled 3d designs of mechanical parts and assemblies' ) ;
#150 = ADVANCED_FACE ( 'NONE', ( #19 ), #79, .T. ) ;
#151 = APPROVAL_STATUS ( 'not_yet_approved' ) ;
#152 = CC_DESIGN_DATE_AND_TIME_ASSIGNMENT ( #45, #201, ( #159 ) ) ;
#153 = DIRECTION ( 'NONE',  ( -4.275831445896958607E-31, -1.000000000000000000, -1.224646799147353207E-16 ) ) ;
#154 = VERTEX_POINT ( 'NONE', #64 ) ;
#155 = DIRECTION ( 'NONE',  ( -3.491481338843133355E-15, 1.224646799147353207E-16, -1.000000000000000000 ) ) ;
#156 = PRODUCT ( '37506', '37506', '', ( #160 ) ) ;
#157 = CARTESIAN_POINT ( 'NONE',  ( 8.577868145635028128E-16, 0.6749999999999963807, 0.2456799081296885401 ) ) ;
#158 = AXIS2_PLACEMENT_3D ( 'NONE', #171, #188, #153 ) ;
#159 = SECURITY_CLASSIFICATION ( '', '', #185 ) ;
#160 = MECHANICAL_CONTEXT ( 'NONE', #149, 'mechanical' ) ;
#161 = ORIENTED_EDGE ( 'NONE', *, *, #63, .F. ) ;
#162 = COORDINATED_UNIVERSAL_TIME_OFFSET ( 1, 0, .AHEAD. ) ;
#163 = EDGE_CURVE ( 'NONE', #81, #81, #20, .T. ) ;
#164 = DATE_TIME_ROLE ( 'creation_date' ) ;
#165 = CC_DESIGN_APPROVAL ( #116, ( #159 ) ) ;
#166 = DATE_AND_TIME ( #167, #168 ) ;
#167 = CALENDAR_DATE ( 2021, 15, 10 ) ;
#168 = LOCAL_TIME ( 15, 34, 44.00000000000000000, #73 ) ;
#169 = CARTESIAN_POINT ( 'NONE',  ( 3.491481338843133986E-14, 0.6749999999999963807, 10.00000000000000178 ) ) ;
#170 = PLANE ( 'NONE',  #158 ) ;
#171 = CARTESIAN_POINT ( 'NONE',  ( 3.491481338843133986E-14, 2.569960705150834943E-14, 10.00000000000000178 ) ) ;
#172 = AXIS2_PLACEMENT_3D ( 'NONE', #118, #136, #1 ) ;
#173 = DIRECTION ( 'NONE',  ( 0.0000000000000000000, 1.000000000000000000, 0.0000000000000000000 ) ) ;
#174 = CC_DESIGN_DATE_AND_TIME_ASSIGNMENT ( #166, #164, ( #37 ) ) ;
#175 = DESIGN_CONTEXT ( 'detailed design', #31, 'design' ) ;
#176 = EDGE_LOOP ( 'NONE', ( #54 ) ) ;
#177 = ORIENTED_EDGE ( 'NONE', *, *, #27, .T. ) ;
#178 =( GEOMETRIC_REPRESENTATION_CONTEXT ( 3 ) GLOBAL_UNCERTAINTY_ASSIGNED_CONTEXT ( ( #144 ) ) GLOBAL_UNIT_ASSIGNED_CONTEXT ( ( #4, #49, #193 ) ) REPRESENTATION_CONTEXT ( 'NONE', 'WORKASPACE' ) );
#179 = COORDINATED_UNIVERSAL_TIME_OFFSET ( 1, 0, .AHEAD. ) ;
#180 = EDGE_LOOP ( 'NONE', ( #177 ) ) ;
#181 = COORDINATED_UNIVERSAL_TIME_OFFSET ( 1, 0, .AHEAD. ) ;
#182 = PERSON_AND_ORGANIZATION_ROLE ( 'creator' ) ;
#183 = APPROVAL_STATUS ( 'not_yet_approved' ) ;
#184 = AXIS2_PLACEMENT_3D ( 'NONE', #112, #23, #173 ) ;
#185 = SECURITY_CLASSIFICATION_LEVEL ( 'unclassified' ) ;
#186 = LOCAL_TIME ( 15, 34, 44.00000000000000000, #181 ) ;
#187 = APPROVAL ( #42, 'UNSPECIFIED' ) ;
#188 = DIRECTION ( 'NONE',  ( 3.491481338843133355E-15, -1.224646799147353207E-16, 1.000000000000000000 ) ) ;
#189 = DIRECTION ( 'NONE',  ( -4.275831445896958607E-31, -1.000000000000000000, -1.224646799147353207E-16 ) ) ;
#190 = AXIS2_PLACEMENT_3D ( 'NONE', #113, #51, #125 ) ;
#191 = CC_DESIGN_PERSON_AND_ORGANIZATION_ASSIGNMENT ( #137, #61, ( #159 ) ) ;
#192 = CYLINDRICAL_SURFACE ( 'NONE', #18, 0.6749999999999970468 ) ;
#193 =( NAMED_UNIT ( * ) SI_UNIT ( $, .STERADIAN. ) SOLID_ANGLE_UNIT ( ) );
#194 = CARTESIAN_POINT ( 'NONE',  ( 0.0000000000000000000, 0.0000000000000000000, 0.0000000000000000000 ) ) ;
#195 = ADVANCED_FACE ( 'NONE', ( #140, #127 ), #192, .T. ) ;
#196 = EDGE_LOOP ( 'NONE', ( #12 ) ) ;
#197 = PERSON_AND_ORGANIZATION_ROLE ( 'design_supplier' ) ;
#198 = FACE_OUTER_BOUND ( 'NONE', #87, .T. ) ;
#199 = PRODUCT_DEFINITION_FORMATION_WITH_SPECIFIED_SOURCE ( 'ANY', '', #156, .NOT_KNOWN. ) ;
#200 = PERSON_AND_ORGANIZATION ( #143, #126 ) ;
#201 = DATE_TIME_ROLE ( 'classification_date' ) ;
#202 = PERSON_AND_ORGANIZATION ( #143, #126 ) ;
#203 = CC_DESIGN_APPROVAL ( #141, ( #199 ) ) ;
ENDSEC;
END-ISO-10303-21;
