ISO-10303-21;
HEADER;
FILE_DESCRIPTION (( 'STEP AP203' ),
    '1' );
FILE_NAME ('3748.step',
    '2021-12-06T12:59:32',
    ( '' ),
    ( '' ),
    'SwSTEP 2.0',
    'SolidWorks 2019',
    '' );
FILE_SCHEMA (( 'CONFIG_CONTROL_DESIGN' ));
ENDSEC;

DATA;
#1 = UNCERTAINTY_MEASURE_WITH_UNIT (LENGTH_MEASURE( 1.000000000000000082E-05 ), #105, 'distance_accuracy_value', 'NONE');
#2 = AXIS2_PLACEMENT_3D ( 'NONE', #23, #114, #140 ) ;
#3 = PERSON_AND_ORGANIZATION ( #49, #143 ) ;
#4 = DATE_AND_TIME ( #159, #85 ) ;
#5 = DATE_AND_TIME ( #127, #165 ) ;
#6 = CIRCLE ( 'NONE', #2, 31.50000000000000000 ) ;
#7 = ORIENTED_EDGE ( 'NONE', *, *, #164, .F. ) ;
#8 = PRODUCT_DEFINITION_SHAPE ( 'NONE', 'NONE',  #58 ) ;
#9 = DIRECTION ( 'NONE',  ( -3.491481338843133355E-15, 2.780727744544685595E-16, -1.000000000000000000 ) ) ;
#10 = LOCAL_TIME ( 13, 59, 32.00000000000000000, #107 ) ;
#11 = EDGE_CURVE ( 'NONE', #13, #13, #35, .T. ) ;
#12 = DIRECTION ( 'NONE',  ( 9.708859028481124729E-31, 1.000000000000000000, 2.780727744544685595E-16 ) ) ;
#13 = VERTEX_POINT ( 'NONE', #53 ) ;
#14 = CC_DESIGN_APPROVAL ( #37, ( #111 ) ) ;
#15 = ADVANCED_FACE ( 'NONE', ( #52, #167 ), #67, .T. ) ;
#16 = CALENDAR_DATE ( 2021, 6, 12 ) ;
#17 = PERSON_AND_ORGANIZATION_ROLE ( 'creator' ) ;
#18 = COORDINATED_UNIVERSAL_TIME_OFFSET ( 1, 0, .AHEAD. ) ;
#19 = SHAPE_DEFINITION_REPRESENTATION ( #8, #65 ) ;
#20 = AXIS2_PLACEMENT_3D ( 'NONE', #123, #168, #101 ) ;
#21 = ORIENTED_EDGE ( 'NONE', *, *, #31, .T. ) ;
#22 = FACE_OUTER_BOUND ( 'NONE', #119, .T. ) ;
#23 = CARTESIAN_POINT ( 'NONE',  ( -3.058290593971554544E-29, 2.435720738623381061E-30, -8.759292395315759673E-15 ) ) ;
#24 = CIRCLE ( 'NONE', #100, 31.50000000000000000 ) ;
#25 = CC_DESIGN_PERSON_AND_ORGANIZATION_ASSIGNMENT ( #144, #69, ( #111 ) ) ;
#26 = DIRECTION ( 'NONE',  ( -3.491481338843133355E-15, 2.780727744544685595E-16, -1.000000000000000000 ) ) ;
#27 = DIRECTION ( 'NONE',  ( -3.491481338843133355E-15, 2.780727744544685595E-16, -1.000000000000000000 ) ) ;
#28 = CLOSED_SHELL ( 'NONE', ( #15, #135, #95, #154 ) ) ;
#29 = AXIS2_PLACEMENT_3D ( 'NONE', #124, #102, #39 ) ;
#30 = DATE_AND_TIME ( #16, #10 ) ;
#31 = EDGE_CURVE ( 'NONE', #68, #68, #63, .T. ) ;
#32 = COORDINATED_UNIVERSAL_TIME_OFFSET ( 1, 0, .AHEAD. ) ;
#33 = APPLICATION_CONTEXT ( 'configuration controlled 3d designs of mechanical parts and assemblies' ) ;
#34 = EDGE_LOOP ( 'NONE', ( #50 ) ) ;
#35 = CIRCLE ( 'NONE', #131, 8.000000000000000000 ) ;
#36 = VERTEX_POINT ( 'NONE', #40 ) ;
#37 = APPROVAL ( #129, 'UNSPECIFIED' ) ;
#38 = CYLINDRICAL_SURFACE ( 'NONE', #116, 31.50000000000000000 ) ;
#39 = DIRECTION ( 'NONE',  ( 1.000000000000000000, 0.0000000000000000000, 0.0000000000000000000 ) ) ;
#40 = CARTESIAN_POINT ( 'NONE',  ( 0.0000000000000000000, 31.50000000000000000, 0.0000000000000000000 ) ) ;
#41 = APPLICATION_PROTOCOL_DEFINITION ( 'international standard', 'config_control_design', 1994, #156 ) ;
#42 = DATE_TIME_ROLE ( 'creation_date' ) ;
#43 = PRODUCT_RELATED_PRODUCT_CATEGORY ( 'detail', '', ( #163 ) ) ;
#44 = PERSON_AND_ORGANIZATION ( #49, #143 ) ;
#45 = APPROVAL_PERSON_ORGANIZATION ( #3, #37, #142 ) ;
#46 = APPROVAL_STATUS ( 'not_yet_approved' ) ;
#47 = CC_DESIGN_DATE_AND_TIME_ASSIGNMENT ( #5, #72, ( #111 ) ) ;
#48 = ORIENTED_EDGE ( 'NONE', *, *, #11, .F. ) ;
#49 = PERSON ( 'UNSPECIFIED', 'UNSPECIFIED', 'UNSPECIFIED', ('UNSPECIFIED'), ('UNSPECIFIED'), ('UNSPECIFIED') ) ;
#50 = ORIENTED_EDGE ( 'NONE', *, *, #51, .T. ) ;
#51 = EDGE_CURVE ( 'NONE', #36, #36, #6, .T. ) ;
#52 = FACE_OUTER_BOUND ( 'NONE', #34, .T. ) ;
#53 = CARTESIAN_POINT ( 'NONE',  ( 1.396592535537253658E-14, 7.999999999999998224, 4.000000000000000888 ) ) ;
#54 = CARTESIAN_POINT ( 'NONE',  ( 1.396592535537252080E-14, 7.999999999999998224, 3.999999999999996447 ) ) ;
#55 = FACE_BOUND ( 'NONE', #137, .T. ) ;
#56 = CC_DESIGN_APPROVAL ( #89, ( #58 ) ) ;
#57 = CARTESIAN_POINT ( 'NONE',  ( 0.0000000000000000000, 0.0000000000000000000, 0.0000000000000000000 ) ) ;
#58 = PRODUCT_DEFINITION ( 'UNKNOWN', '', #141, #70 ) ;
#59 = APPROVAL_ROLE ( '' ) ;
#60 = CC_DESIGN_PERSON_AND_ORGANIZATION_ASSIGNMENT ( #88, #98, ( #141 ) ) ;
#61 = APPROVAL_DATE_TIME ( #133, #37 ) ;
#62 = PERSON_AND_ORGANIZATION_ROLE ( 'design_owner' ) ;
#63 = CIRCLE ( 'NONE', #20, 8.000000000000000000 ) ;
#64 = CC_DESIGN_APPROVAL ( #148, ( #141 ) ) ;
#65 = ADVANCED_BREP_SHAPE_REPRESENTATION ( '3748', ( #82, #29 ), #121 ) ;
#66 =( NAMED_UNIT ( * ) SI_UNIT ( $, .STERADIAN. ) SOLID_ANGLE_UNIT ( ) );
#67 = PLANE ( 'NONE',  #146 ) ;
#68 = VERTEX_POINT ( 'NONE', #152 ) ;
#69 = PERSON_AND_ORGANIZATION_ROLE ( 'classification_officer' ) ;
#70 = DESIGN_CONTEXT ( 'detailed design', #156, 'design' ) ;
#71 = COORDINATED_UNIVERSAL_TIME_OFFSET ( 1, 0, .AHEAD. ) ;
#72 = DATE_TIME_ROLE ( 'classification_date' ) ;
#73 = CALENDAR_DATE ( 2021, 6, 12 ) ;
#74 = CC_DESIGN_SECURITY_CLASSIFICATION ( #111, ( #141 ) ) ;
#75 = LOCAL_TIME ( 13, 59, 32.00000000000000000, #84 ) ;
#76 = EDGE_LOOP ( 'NONE', ( #120 ) ) ;
#77 = APPROVAL_PERSON_ORGANIZATION ( #86, #148, #59 ) ;
#78 = CC_DESIGN_DATE_AND_TIME_ASSIGNMENT ( #30, #42, ( #58 ) ) ;
#79 = CARTESIAN_POINT ( 'NONE',  ( 0.0000000000000000000, 0.0000000000000000000, 0.0000000000000000000 ) ) ;
#80 = DIRECTION ( 'NONE',  ( 9.708859028481124729E-31, 1.000000000000000000, 2.780727744544685595E-16 ) ) ;
#81 = DIRECTION ( 'NONE',  ( 9.782501304824055405E-31, 1.000000000000000000, 2.753529326947312927E-16 ) ) ;
#82 = MANIFOLD_SOLID_BREP ( 'Corps-Déplacer/Copier1', #28 ) ;
#83 = PLANE ( 'NONE',  #87 ) ;
#84 = COORDINATED_UNIVERSAL_TIME_OFFSET ( 1, 0, .AHEAD. ) ;
#85 = LOCAL_TIME ( 13, 59, 32.00000000000000000, #18 ) ;
#86 = PERSON_AND_ORGANIZATION ( #49, #143 ) ;
#87 = AXIS2_PLACEMENT_3D ( 'NONE', #54, #93, #138 ) ;
#88 = PERSON_AND_ORGANIZATION ( #49, #143 ) ;
#89 = APPROVAL ( #46, 'UNSPECIFIED' ) ;
#90 = EDGE_LOOP ( 'NONE', ( #7 ) ) ;
#91 = LOCAL_TIME ( 13, 59, 32.00000000000000000, #71 ) ;
#92 =( NAMED_UNIT ( * ) PLANE_ANGLE_UNIT ( ) SI_UNIT ( $, .RADIAN. ) );
#93 = DIRECTION ( 'NONE',  ( 3.491481338843133355E-15, -2.780727744544685595E-16, 1.000000000000000000 ) ) ;
#94 = CARTESIAN_POINT ( 'NONE',  ( -1.140790935846532353E-29, 8.000000000000000000, -3.267355099840005599E-15 ) ) ;
#95 = ADVANCED_FACE ( 'NONE', ( #55, #150 ), #83, .T. ) ;
#96 = DIRECTION ( 'NONE',  ( 1.155557966632341512E-30, 1.000000000000000000, 3.252606517456513302E-16 ) ) ;
#97 = APPROVAL_DATE_TIME ( #4, #89 ) ;
#98 = PERSON_AND_ORGANIZATION_ROLE ( 'creator' ) ;
#99 = SECURITY_CLASSIFICATION_LEVEL ( 'unclassified' ) ;
#100 = AXIS2_PLACEMENT_3D ( 'NONE', #155, #27, #81 ) ;
#101 = DIRECTION ( 'NONE',  ( 9.708859028481124729E-31, 1.000000000000000000, 2.780727744544685595E-16 ) ) ;
#102 = DIRECTION ( 'NONE',  ( 0.0000000000000000000, 0.0000000000000000000, 1.000000000000000000 ) ) ;
#103 = CC_DESIGN_PERSON_AND_ORGANIZATION_ASSIGNMENT ( #169, #109, ( #141 ) ) ;
#104 = DIRECTION ( 'NONE',  ( -3.491481338843133355E-15, 2.780727744544685595E-16, -1.000000000000000000 ) ) ;
#105 =( LENGTH_UNIT ( ) NAMED_UNIT ( * ) SI_UNIT ( .MILLI., .METRE. ) );
#106 = DIRECTION ( 'NONE',  ( -3.491481338843133355E-15, 2.780727744544685595E-16, -1.000000000000000000 ) ) ;
#107 = COORDINATED_UNIVERSAL_TIME_OFFSET ( 1, 0, .AHEAD. ) ;
#108 = APPROVAL_STATUS ( 'not_yet_approved' ) ;
#109 = PERSON_AND_ORGANIZATION_ROLE ( 'design_supplier' ) ;
#110 = CYLINDRICAL_SURFACE ( 'NONE', #153, 8.000000000000000000 ) ;
#111 = SECURITY_CLASSIFICATION ( '', '', #99 ) ;
#112 = FACE_OUTER_BOUND ( 'NONE', #145, .T. ) ;
#113 = CARTESIAN_POINT ( 'NONE',  ( 1.396592535537253342E-14, 31.50000000000000000, 4.000000000000000000 ) ) ;
#114 = DIRECTION ( 'NONE',  ( -3.491481338843133355E-15, 2.780727744544685595E-16, -1.000000000000000000 ) ) ;
#115 = PERSON_AND_ORGANIZATION ( #49, #143 ) ;
#116 = AXIS2_PLACEMENT_3D ( 'NONE', #57, #106, #151 ) ;
#117 = APPROVAL_DATE_TIME ( #128, #148 ) ;
#118 = MECHANICAL_CONTEXT ( 'NONE', #33, 'mechanical' ) ;
#119 = EDGE_LOOP ( 'NONE', ( #160 ) ) ;
#120 = ORIENTED_EDGE ( 'NONE', *, *, #31, .F. ) ;
#121 =( GEOMETRIC_REPRESENTATION_CONTEXT ( 3 ) GLOBAL_UNCERTAINTY_ASSIGNED_CONTEXT ( ( #1 ) ) GLOBAL_UNIT_ASSIGNED_CONTEXT ( ( #105, #92, #66 ) ) REPRESENTATION_CONTEXT ( 'NONE', 'WORKASPACE' ) );
#122 = EDGE_LOOP ( 'NONE', ( #21 ) ) ;
#123 = CARTESIAN_POINT ( 'NONE',  ( -7.767087222784901185E-30, 6.185957431424458893E-31, -2.224582195635748476E-15 ) ) ;
#124 = CARTESIAN_POINT ( 'NONE',  ( 0.0000000000000000000, 0.0000000000000000000, 0.0000000000000000000 ) ) ;
#125 = VERTEX_POINT ( 'NONE', #113 ) ;
#126 = APPLICATION_PROTOCOL_DEFINITION ( 'international standard', 'config_control_design', 1994, #33 ) ;
#127 = CALENDAR_DATE ( 2021, 6, 12 ) ;
#128 = DATE_AND_TIME ( #73, #75 ) ;
#129 = APPROVAL_STATUS ( 'not_yet_approved' ) ;
#130 = CC_DESIGN_PERSON_AND_ORGANIZATION_ASSIGNMENT ( #132, #62, ( #163 ) ) ;
#131 = AXIS2_PLACEMENT_3D ( 'NONE', #161, #26, #96 ) ;
#132 = PERSON_AND_ORGANIZATION ( #49, #143 ) ;
#133 = DATE_AND_TIME ( #157, #91 ) ;
#134 = ORIENTED_EDGE ( 'NONE', *, *, #164, .T. ) ;
#135 = ADVANCED_FACE ( 'NONE', ( #112, #22 ), #38, .T. ) ;
#136 = ORIENTED_EDGE ( 'NONE', *, *, #11, .T. ) ;
#137 = EDGE_LOOP ( 'NONE', ( #136 ) ) ;
#138 = DIRECTION ( 'NONE',  ( -9.708859028481124729E-31, -1.000000000000000000, -2.780727744544685595E-16 ) ) ;
#139 = FACE_OUTER_BOUND ( 'NONE', #122, .T. ) ;
#140 = DIRECTION ( 'NONE',  ( 9.708859028481124729E-31, 1.000000000000000000, 2.780727744544685595E-16 ) ) ;
#141 = PRODUCT_DEFINITION_FORMATION_WITH_SPECIFIED_SOURCE ( 'ANY', '', #163, .NOT_KNOWN. ) ;
#142 = APPROVAL_ROLE ( '' ) ;
#143 = ORGANIZATION ( 'UNSPECIFIED', 'UNSPECIFIED', '' ) ;
#144 = PERSON_AND_ORGANIZATION ( #49, #143 ) ;
#145 = EDGE_LOOP ( 'NONE', ( #134 ) ) ;
#146 = AXIS2_PLACEMENT_3D ( 'NONE', #94, #9, #12 ) ;
#147 = APPROVAL_PERSON_ORGANIZATION ( #115, #89, #158 ) ;
#148 = APPROVAL ( #108, 'UNSPECIFIED' ) ;
#149 = CC_DESIGN_PERSON_AND_ORGANIZATION_ASSIGNMENT ( #44, #17, ( #58 ) ) ;
#150 = FACE_OUTER_BOUND ( 'NONE', #90, .T. ) ;
#151 = DIRECTION ( 'NONE',  ( 9.708859028481124729E-31, 1.000000000000000000, 2.780727744544685595E-16 ) ) ;
#152 = CARTESIAN_POINT ( 'NONE',  ( -1.368455531567204171E-45, 8.000000000000000000, 0.0000000000000000000 ) ) ;
#153 = AXIS2_PLACEMENT_3D ( 'NONE', #79, #104, #80 ) ;
#154 = ADVANCED_FACE ( 'NONE', ( #139, #166 ), #110, .F. ) ;
#155 = CARTESIAN_POINT ( 'NONE',  ( 1.396592535537250344E-14, -1.112291097817871871E-15, 3.999999999999991562 ) ) ;
#156 = APPLICATION_CONTEXT ( 'configuration controlled 3d designs of mechanical parts and assemblies' ) ;
#157 = CALENDAR_DATE ( 2021, 6, 12 ) ;
#158 = APPROVAL_ROLE ( '' ) ;
#159 = CALENDAR_DATE ( 2021, 6, 12 ) ;
#160 = ORIENTED_EDGE ( 'NONE', *, *, #51, .F. ) ;
#161 = CARTESIAN_POINT ( 'NONE',  ( 1.396592535537252711E-14, -1.112291097817873844E-15, 3.999999999999998224 ) ) ;
#162 = EDGE_LOOP ( 'NONE', ( #48 ) ) ;
#163 = PRODUCT ( '3748', '3748', '', ( #118 ) ) ;
#164 = EDGE_CURVE ( 'NONE', #125, #125, #24, .T. ) ;
#165 = LOCAL_TIME ( 13, 59, 32.00000000000000000, #32 ) ;
#166 = FACE_OUTER_BOUND ( 'NONE', #162, .T. ) ;
#167 = FACE_BOUND ( 'NONE', #76, .T. ) ;
#168 = DIRECTION ( 'NONE',  ( -3.491481338843133355E-15, 2.780727744544685595E-16, -1.000000000000000000 ) ) ;
#169 = PERSON_AND_ORGANIZATION ( #49, #143 ) ;
ENDSEC;
END-ISO-10303-21;
