ISO-10303-21;
HEADER;
FILE_DESCRIPTION (( 'STEP AP203' ),
    '1' );
FILE_NAME ('3737.step',
    '2021-12-06T12:59:31',
    ( '' ),
    ( '' ),
    'SwSTEP 2.0',
    'SolidWorks 2019',
    '' );
FILE_SCHEMA (( 'CONFIG_CONTROL_DESIGN' ));
ENDSEC;

DATA;
#1 = AXIS2_PLACEMENT_3D ( 'NONE', #52, #84, #146 ) ;
#2 = ORIENTED_EDGE ( 'NONE', *, *, #81, .F. ) ;
#3 = ORIENTED_EDGE ( 'NONE', *, *, #164, .T. ) ;
#4 = CIRCLE ( 'NONE', #37, 5.000000000000000000 ) ;
#5 = APPLICATION_PROTOCOL_DEFINITION ( 'international standard', 'config_control_design', 1994, #34 ) ;
#6 = COORDINATED_UNIVERSAL_TIME_OFFSET ( 1, 0, .AHEAD. ) ;
#7 = MECHANICAL_CONTEXT ( 'NONE', #63, 'mechanical' ) ;
#8 =( NAMED_UNIT ( * ) SI_UNIT ( $, .STERADIAN. ) SOLID_ANGLE_UNIT ( ) );
#9 = CARTESIAN_POINT ( 'NONE',  ( 1.396592535537253342E-14, 4.999999999999999112, 4.000000000000000000 ) ) ;
#10 = CIRCLE ( 'NONE', #69, 20.00000000000000000 ) ;
#11 = PRODUCT_DEFINITION_SHAPE ( 'NONE', 'NONE',  #119 ) ;
#12 = CC_DESIGN_DATE_AND_TIME_ASSIGNMENT ( #20, #33, ( #119 ) ) ;
#13 = DIRECTION ( 'NONE',  ( 1.232595164407830946E-30, 1.000000000000000000, 3.469446951953614189E-16 ) ) ;
#14 = FACE_OUTER_BOUND ( 'NONE', #40, .T. ) ;
#15 = APPROVAL ( #75, 'UNSPECIFIED' ) ;
#16 = CARTESIAN_POINT ( 'NONE',  ( 1.396592535537252711E-14, 4.999999999999999112, 3.999999999999998224 ) ) ;
#17 = PERSON_AND_ORGANIZATION ( #136, #122 ) ;
#18 = VERTEX_POINT ( 'NONE', #9 ) ;
#19 = APPROVAL_PERSON_ORGANIZATION ( #169, #78, #116 ) ;
#20 = DATE_AND_TIME ( #154, #61 ) ;
#21 = UNCERTAINTY_MEASURE_WITH_UNIT (LENGTH_MEASURE( 1.000000000000000082E-05 ), #124, 'distance_accuracy_value', 'NONE');
#22 = DATE_AND_TIME ( #143, #120 ) ;
#23 = DATE_AND_TIME ( #141, #44 ) ;
#24 = CC_DESIGN_APPROVAL ( #130, ( #140 ) ) ;
#25 = COORDINATED_UNIVERSAL_TIME_OFFSET ( 1, 0, .AHEAD. ) ;
#26 = ORIENTED_EDGE ( 'NONE', *, *, #106, .T. ) ;
#27 = ORIENTED_EDGE ( 'NONE', *, *, #106, .F. ) ;
#28 = CARTESIAN_POINT ( 'NONE',  ( -1.941771805696225156E-29, 1.546489357856114898E-30, -5.561455489089371584E-15 ) ) ;
#29 = DIRECTION ( 'NONE',  ( -3.491481338843133355E-15, 2.780727744544685595E-16, -1.000000000000000000 ) ) ;
#30 = CALENDAR_DATE ( 2021, 6, 12 ) ;
#31 = FACE_BOUND ( 'NONE', #42, .T. ) ;
#32 = ADVANCED_BREP_SHAPE_REPRESENTATION ( '3737', ( #128, #48 ), #90 ) ;
#33 = DATE_TIME_ROLE ( 'creation_date' ) ;
#34 = APPLICATION_CONTEXT ( 'configuration controlled 3d designs of mechanical parts and assemblies' ) ;
#35 = PERSON_AND_ORGANIZATION ( #136, #122 ) ;
#36 = CC_DESIGN_PERSON_AND_ORGANIZATION_ASSIGNMENT ( #166, #138, ( #65 ) ) ;
#37 = AXIS2_PLACEMENT_3D ( 'NONE', #121, #29, #41 ) ;
#38 = DATE_TIME_ROLE ( 'classification_date' ) ;
#39 = PRODUCT_DEFINITION_FORMATION_WITH_SPECIFIED_SOURCE ( 'ANY', '', #65, .NOT_KNOWN. ) ;
#40 = EDGE_LOOP ( 'NONE', ( #3 ) ) ;
#41 = DIRECTION ( 'NONE',  ( 9.708859028481126481E-31, 1.000000000000000000, 2.780727744544685595E-16 ) ) ;
#42 = EDGE_LOOP ( 'NONE', ( #163 ) ) ;
#43 = FACE_OUTER_BOUND ( 'NONE', #160, .T. ) ;
#44 = LOCAL_TIME ( 13, 59, 31.00000000000000000, #25 ) ;
#45 =( NAMED_UNIT ( * ) PLANE_ANGLE_UNIT ( ) SI_UNIT ( $, .RADIAN. ) );
#46 = PERSON_AND_ORGANIZATION_ROLE ( 'design_supplier' ) ;
#47 = APPROVAL_DATE_TIME ( #168, #78 ) ;
#48 = AXIS2_PLACEMENT_3D ( 'NONE', #135, #73, #72 ) ;
#49 = DATE_AND_TIME ( #155, #117 ) ;
#50 = CC_DESIGN_DATE_AND_TIME_ASSIGNMENT ( #22, #38, ( #140 ) ) ;
#51 = APPROVAL_PERSON_ORGANIZATION ( #66, #130, #62 ) ;
#52 = CARTESIAN_POINT ( 'NONE',  ( -7.281644271360844685E-30, 5.000000000000000000, -2.085545808408514245E-15 ) ) ;
#53 = ORIENTED_EDGE ( 'NONE', *, *, #59, .F. ) ;
#54 = DIRECTION ( 'NONE',  ( -3.491481338843133355E-15, 2.780727744544685595E-16, -1.000000000000000000 ) ) ;
#55 = CIRCLE ( 'NONE', #98, 5.000000000000000000 ) ;
#56 = ORIENTED_EDGE ( 'NONE', *, *, #59, .T. ) ;
#57 = DIRECTION ( 'NONE',  ( 9.708859028481126481E-31, 1.000000000000000000, 2.780727744544685595E-16 ) ) ;
#58 = FACE_OUTER_BOUND ( 'NONE', #67, .T. ) ;
#59 = EDGE_CURVE ( 'NONE', #113, #113, #4, .T. ) ;
#60 = CARTESIAN_POINT ( 'NONE',  ( 0.0000000000000000000, 0.0000000000000000000, 0.0000000000000000000 ) ) ;
#61 = LOCAL_TIME ( 13, 59, 31.00000000000000000, #6 ) ;
#62 = APPROVAL_ROLE ( '' ) ;
#63 = APPLICATION_CONTEXT ( 'configuration controlled 3d designs of mechanical parts and assemblies' ) ;
#64 = SECURITY_CLASSIFICATION_LEVEL ( 'unclassified' ) ;
#65 = PRODUCT ( '3737', '3737', '', ( #7 ) ) ;
#66 = PERSON_AND_ORGANIZATION ( #136, #122 ) ;
#67 = EDGE_LOOP ( 'NONE', ( #68 ) ) ;
#68 = ORIENTED_EDGE ( 'NONE', *, *, #164, .F. ) ;
#69 = AXIS2_PLACEMENT_3D ( 'NONE', #165, #104, #115 ) ;
#70 = DIRECTION ( 'NONE',  ( 9.708859028481126481E-31, 1.000000000000000000, 2.780727744544685595E-16 ) ) ;
#71 = CARTESIAN_POINT ( 'NONE',  ( 0.0000000000000000000, 5.000000000000000000, 0.0000000000000000000 ) ) ;
#72 = DIRECTION ( 'NONE',  ( 1.000000000000000000, 0.0000000000000000000, 0.0000000000000000000 ) ) ;
#73 = DIRECTION ( 'NONE',  ( 0.0000000000000000000, 0.0000000000000000000, 1.000000000000000000 ) ) ;
#74 = DIRECTION ( 'NONE',  ( -3.491481338843133355E-15, 2.780727744544685595E-16, -1.000000000000000000 ) ) ;
#75 = APPROVAL_STATUS ( 'not_yet_approved' ) ;
#76 = AXIS2_PLACEMENT_3D ( 'NONE', #60, #74, #57 ) ;
#77 = APPROVAL_DATE_TIME ( #23, #130 ) ;
#78 = APPROVAL ( #91, 'UNSPECIFIED' ) ;
#79 = APPROVAL_PERSON_ORGANIZATION ( #92, #15, #139 ) ;
#80 = COORDINATED_UNIVERSAL_TIME_OFFSET ( 1, 0, .AHEAD. ) ;
#81 = EDGE_CURVE ( 'NONE', #18, #18, #55, .T. ) ;
#82 = EDGE_LOOP ( 'NONE', ( #56 ) ) ;
#83 = CC_DESIGN_APPROVAL ( #78, ( #119 ) ) ;
#84 = DIRECTION ( 'NONE',  ( -3.491481338843133355E-15, 2.780727744544685595E-16, -1.000000000000000000 ) ) ;
#85 = CARTESIAN_POINT ( 'NONE',  ( 0.0000000000000000000, 0.0000000000000000000, 0.0000000000000000000 ) ) ;
#86 = AXIS2_PLACEMENT_3D ( 'NONE', #16, #114, #125 ) ;
#87 = COORDINATED_UNIVERSAL_TIME_OFFSET ( 1, 0, .AHEAD. ) ;
#88 = CARTESIAN_POINT ( 'NONE',  ( 1.396592535537253342E-14, 20.00000000000000000, 4.000000000000000000 ) ) ;
#89 = ADVANCED_FACE ( 'NONE', ( #112, #96 ), #99, .T. ) ;
#90 =( GEOMETRIC_REPRESENTATION_CONTEXT ( 3 ) GLOBAL_UNCERTAINTY_ASSIGNED_CONTEXT ( ( #21 ) ) GLOBAL_UNIT_ASSIGNED_CONTEXT ( ( #124, #45, #8 ) ) REPRESENTATION_CONTEXT ( 'NONE', 'WORKASPACE' ) );
#91 = APPROVAL_STATUS ( 'not_yet_approved' ) ;
#92 = PERSON_AND_ORGANIZATION ( #136, #122 ) ;
#93 = COORDINATED_UNIVERSAL_TIME_OFFSET ( 1, 0, .AHEAD. ) ;
#94 = DESIGN_CONTEXT ( 'detailed design', #34, 'design' ) ;
#95 = APPROVAL_STATUS ( 'not_yet_approved' ) ;
#96 = FACE_BOUND ( 'NONE', #145, .T. ) ;
#97 = CARTESIAN_POINT ( 'NONE',  ( 1.396592535537252711E-14, -1.112291097817873844E-15, 3.999999999999998224 ) ) ;
#98 = AXIS2_PLACEMENT_3D ( 'NONE', #97, #54, #13 ) ;
#99 = PLANE ( 'NONE',  #1 ) ;
#100 = EDGE_LOOP ( 'NONE', ( #26 ) ) ;
#101 = CLOSED_SHELL ( 'NONE', ( #89, #109, #133, #111 ) ) ;
#102 = CIRCLE ( 'NONE', #157, 20.00000000000000000 ) ;
#103 = FACE_OUTER_BOUND ( 'NONE', #110, .T. ) ;
#104 = DIRECTION ( 'NONE',  ( -3.491481338843133355E-15, 2.780727744544685595E-16, -1.000000000000000000 ) ) ;
#105 = VERTEX_POINT ( 'NONE', #88 ) ;
#106 = EDGE_CURVE ( 'NONE', #137, #137, #102, .T. ) ;
#107 = PERSON_AND_ORGANIZATION_ROLE ( 'creator' ) ;
#108 = APPROVAL_DATE_TIME ( #49, #15 ) ;
#109 = ADVANCED_FACE ( 'NONE', ( #14, #43 ), #147, .T. ) ;
#110 = EDGE_LOOP ( 'NONE', ( #2 ) ) ;
#111 = ADVANCED_FACE ( 'NONE', ( #123, #103 ), #148, .F. ) ;
#112 = FACE_OUTER_BOUND ( 'NONE', #100, .T. ) ;
#113 = VERTEX_POINT ( 'NONE', #71 ) ;
#114 = DIRECTION ( 'NONE',  ( 3.491481338843133355E-15, -2.780727744544685595E-16, 1.000000000000000000 ) ) ;
#115 = DIRECTION ( 'NONE',  ( 9.244463733058732095E-31, 1.000000000000000000, 2.602085213965210642E-16 ) ) ;
#116 = APPROVAL_ROLE ( '' ) ;
#117 = LOCAL_TIME ( 13, 59, 31.00000000000000000, #93 ) ;
#118 = CARTESIAN_POINT ( 'NONE',  ( 0.0000000000000000000, 20.00000000000000000, 0.0000000000000000000 ) ) ;
#119 = PRODUCT_DEFINITION ( 'UNKNOWN', '', #39, #94 ) ;
#120 = LOCAL_TIME ( 13, 59, 31.00000000000000000, #80 ) ;
#121 = CARTESIAN_POINT ( 'NONE',  ( -4.854429514240562890E-30, 3.866223394640287246E-31, -1.390363872272342896E-15 ) ) ;
#122 = ORGANIZATION ( 'UNSPECIFIED', 'UNSPECIFIED', '' ) ;
#123 = FACE_OUTER_BOUND ( 'NONE', #82, .T. ) ;
#124 =( LENGTH_UNIT ( ) NAMED_UNIT ( * ) SI_UNIT ( .MILLI., .METRE. ) );
#125 = DIRECTION ( 'NONE',  ( -9.708859028481124729E-31, -1.000000000000000000, -2.780727744544685595E-16 ) ) ;
#126 = PERSON_AND_ORGANIZATION_ROLE ( 'creator' ) ;
#127 = CC_DESIGN_PERSON_AND_ORGANIZATION_ASSIGNMENT ( #167, #46, ( #39 ) ) ;
#128 = MANIFOLD_SOLID_BREP ( 'Corps-Déplacer/Copier1', #101 ) ;
#129 = SHAPE_DEFINITION_REPRESENTATION ( #11, #32 ) ;
#130 = APPROVAL ( #95, 'UNSPECIFIED' ) ;
#131 = DIRECTION ( 'NONE',  ( 9.708859028481126481E-31, 1.000000000000000000, 2.780727744544685595E-16 ) ) ;
#132 = DIRECTION ( 'NONE',  ( -3.491481338843133355E-15, 2.780727744544685595E-16, -1.000000000000000000 ) ) ;
#133 = ADVANCED_FACE ( 'NONE', ( #31, #58 ), #150, .T. ) ;
#134 = CC_DESIGN_APPROVAL ( #15, ( #39 ) ) ;
#135 = CARTESIAN_POINT ( 'NONE',  ( 0.0000000000000000000, 0.0000000000000000000, 0.0000000000000000000 ) ) ;
#136 = PERSON ( 'UNSPECIFIED', 'UNSPECIFIED', 'UNSPECIFIED', ('UNSPECIFIED'), ('UNSPECIFIED'), ('UNSPECIFIED') ) ;
#137 = VERTEX_POINT ( 'NONE', #118 ) ;
#138 = PERSON_AND_ORGANIZATION_ROLE ( 'design_owner' ) ;
#139 = APPROVAL_ROLE ( '' ) ;
#140 = SECURITY_CLASSIFICATION ( '', '', #64 ) ;
#141 = CALENDAR_DATE ( 2021, 6, 12 ) ;
#142 = PRODUCT_RELATED_PRODUCT_CATEGORY ( 'detail', '', ( #65 ) ) ;
#143 = CALENDAR_DATE ( 2021, 6, 12 ) ;
#144 = PERSON_AND_ORGANIZATION_ROLE ( 'classification_officer' ) ;
#145 = EDGE_LOOP ( 'NONE', ( #53 ) ) ;
#146 = DIRECTION ( 'NONE',  ( 9.708859028481124729E-31, 1.000000000000000000, 2.780727744544685595E-16 ) ) ;
#147 = CYLINDRICAL_SURFACE ( 'NONE', #149, 20.00000000000000000 ) ;
#148 = CYLINDRICAL_SURFACE ( 'NONE', #76, 5.000000000000000000 ) ;
#149 = AXIS2_PLACEMENT_3D ( 'NONE', #85, #132, #70 ) ;
#150 = PLANE ( 'NONE',  #86 ) ;
#151 = CC_DESIGN_PERSON_AND_ORGANIZATION_ASSIGNMENT ( #35, #126, ( #39 ) ) ;
#152 = APPLICATION_PROTOCOL_DEFINITION ( 'international standard', 'config_control_design', 1994, #63 ) ;
#153 = LOCAL_TIME ( 13, 59, 31.00000000000000000, #87 ) ;
#154 = CALENDAR_DATE ( 2021, 6, 12 ) ;
#155 = CALENDAR_DATE ( 2021, 6, 12 ) ;
#156 = CC_DESIGN_PERSON_AND_ORGANIZATION_ASSIGNMENT ( #158, #144, ( #140 ) ) ;
#157 = AXIS2_PLACEMENT_3D ( 'NONE', #28, #162, #131 ) ;
#158 = PERSON_AND_ORGANIZATION ( #136, #122 ) ;
#159 = CC_DESIGN_SECURITY_CLASSIFICATION ( #140, ( #39 ) ) ;
#160 = EDGE_LOOP ( 'NONE', ( #27 ) ) ;
#161 = CC_DESIGN_PERSON_AND_ORGANIZATION_ASSIGNMENT ( #17, #107, ( #119 ) ) ;
#162 = DIRECTION ( 'NONE',  ( -3.491481338843133355E-15, 2.780727744544685595E-16, -1.000000000000000000 ) ) ;
#163 = ORIENTED_EDGE ( 'NONE', *, *, #81, .T. ) ;
#164 = EDGE_CURVE ( 'NONE', #105, #105, #10, .T. ) ;
#165 = CARTESIAN_POINT ( 'NONE',  ( 1.396592535537251607E-14, -1.112291097817872857E-15, 3.999999999999994671 ) ) ;
#166 = PERSON_AND_ORGANIZATION ( #136, #122 ) ;
#167 = PERSON_AND_ORGANIZATION ( #136, #122 ) ;
#168 = DATE_AND_TIME ( #30, #153 ) ;
#169 = PERSON_AND_ORGANIZATION ( #136, #122 ) ;
ENDSEC;
END-ISO-10303-21;
