ISO-10303-21;
HEADER;
FILE_DESCRIPTION (( 'STEP AP203' ),
    '1' );
FILE_NAME ('373287.step',
    '2023-02-01T15:37:44',
    ( '' ),
    ( '' ),
    'SwSTEP 2.0',
    'SolidWorks 2019',
    '' );
FILE_SCHEMA (( 'CONFIG_CONTROL_DESIGN' ));
ENDSEC;

DATA;
#1 = EDGE_LOOP ( 'NONE', ( #207 ) ) ;
#2 = AXIS2_PLACEMENT_3D ( 'NONE', #169, #203, #52 ) ;
#3 = EDGE_LOOP ( 'NONE', ( #21 ) ) ;
#4 = EDGE_LOOP ( 'NONE', ( #85 ) ) ;
#5 = AXIS2_PLACEMENT_3D ( 'NONE', #27, #178, #89 ) ;
#6 = CARTESIAN_POINT ( 'NONE',  ( 1.316288464743861212E-13, -4.616918432785521081E-15, 37.69999999999999574 ) ) ;
#7 = FACE_OUTER_BOUND ( 'NONE', #18, .T. ) ;
#8 = DIRECTION ( 'NONE',  ( 1.000000000000000000, 0.000000000000000000, -3.491481338843133355E-15 ) ) ;
#9 = AXIS2_PLACEMENT_3D ( 'NONE', #211, #25, #46 ) ;
#10 = CARTESIAN_POINT ( 'NONE',  ( 1.326762908760390423E-13, 1.199999999999995293, 38.00000000000000000 ) ) ;
#11 = CARTESIAN_POINT ( 'NONE',  ( 2.444036937190190588E-15, 0.000000000000000000, 0.6999999999999992895 ) ) ;
#12 = CALENDAR_DATE ( 2023, 1, 2 ) ;
#13 = AXIS2_PLACEMENT_3D ( 'NONE', #141, #139, #8 ) ;
#14 = ADVANCED_FACE ( 'NONE', ( #98 ), #174, .T. ) ;
#15 = PERSON_AND_ORGANIZATION ( #36, #132 ) ;
#16 = APPROVAL_DATE_TIME ( #184, #220 ) ;
#17 = CC_DESIGN_PERSON_AND_ORGANIZATION_ASSIGNMENT ( #63, #129, ( #176 ) ) ;
#18 = EDGE_LOOP ( 'NONE', ( #205 ) ) ;
#19 = EDGE_LOOP ( 'NONE', ( #86 ) ) ;
#20 = AXIS2_PLACEMENT_3D ( 'NONE', #6, #120, #122 ) ;
#21 = ORIENTED_EDGE ( 'NONE', *, *, #99, .F. ) ;
#22 = DIRECTION ( 'NONE',  ( -3.491481338843133355E-15, 1.224646799147353207E-16, -1.000000000000000000 ) ) ;
#23 = CC_DESIGN_APPROVAL ( #151, ( #176 ) ) ;
#24 = MANIFOLD_SOLID_BREP ( 'Corps-Déplacer/Copier1[2]', #88 ) ;
#25 = DIRECTION ( 'NONE',  ( 3.491481338843133355E-15, -1.224646799147353207E-16, 1.000000000000000000 ) ) ;
#26 = MANIFOLD_SOLID_BREP ( 'Corps-Déplacer/Copier1[1]', #206 ) ;
#27 = CARTESIAN_POINT ( 'NONE',  ( 1.316288464743861212E-13, -4.616918432785521081E-15, 37.69999999999999574 ) ) ;
#28 = CARTESIAN_POINT ( 'NONE',  ( 1.326762908760390423E-13, 8.998558695971077224E-33, 38.00000000000000000 ) ) ;
#29 = CC_DESIGN_PERSON_AND_ORGANIZATION_ASSIGNMENT ( #152, #111, ( #108 ) ) ;
#30 = CIRCLE ( 'NONE', #123, 1.500000000000000000 ) ;
#31 = DIRECTION ( 'NONE',  ( -3.491481338843133355E-15, 1.224646799147353207E-16, -1.000000000000000000 ) ) ;
#32 = DATE_AND_TIME ( #133, #189 ) ;
#33 = PERSON_AND_ORGANIZATION_ROLE ( 'creator' ) ;
#34 = CC_DESIGN_APPROVAL ( #97, ( #144 ) ) ;
#35 = LOCAL_TIME ( 16, 37, 44.00000000000000000, #148 ) ;
#36 = PERSON ( 'UNSPECIFIED', 'UNSPECIFIED', 'UNSPECIFIED', ('UNSPECIFIED'), ('UNSPECIFIED'), ('UNSPECIFIED') ) ;
#37 = ORIENTED_EDGE ( 'NONE', *, *, #154, .T. ) ;
#38 = PLANE ( 'NONE',  #210 ) ;
#39 = ADVANCED_FACE ( 'NONE', ( #41 ), #38, .F. ) ;
#40 = CC_DESIGN_PERSON_AND_ORGANIZATION_ASSIGNMENT ( #172, #67, ( #144 ) ) ;
#41 = FACE_OUTER_BOUND ( 'NONE', #161, .T. ) ;
#42 = CIRCLE ( 'NONE', #53, 0.1749999999999989342 ) ;
#43 = CARTESIAN_POINT ( 'NONE',  ( -3.206873584422719393E-31, 1.124819836996393206E-32, -9.184850993605149670E-17 ) ) ;
#44 = ADVANCED_FACE ( 'NONE', ( #194 ), #167, .F. ) ;
#45 = DIRECTION ( 'NONE',  ( -3.491481338843133355E-15, 1.224646799147353207E-16, -1.000000000000000000 ) ) ;
#46 = DIRECTION ( 'NONE',  ( -4.275831445896958607E-31, -1.000000000000000000, -1.224646799147353207E-16 ) ) ;
#47 = TOROIDAL_SURFACE ( 'NONE', #13, 8.175000000000002487, 8.000000000000000000 ) ;
#48 = APPROVAL_STATUS ( 'not_yet_approved' ) ;
#49 = CC_DESIGN_DATE_AND_TIME_ASSIGNMENT ( #32, #92, ( #128 ) ) ;
#50 = APPROVAL_PERSON_ORGANIZATION ( #130, #97, #81 ) ;
#51 = PERSON_AND_ORGANIZATION ( #36, #132 ) ;
#52 = DIRECTION ( 'NONE',  ( 1.000000000000000000, 0.000000000000000000, 0.000000000000000000 ) ) ;
#53 = AXIS2_PLACEMENT_3D ( 'NONE', #61, #103, #125 ) ;
#54 = EDGE_LOOP ( 'NONE', ( #56 ) ) ;
#55 = EDGE_CURVE ( 'NONE', #196, #196, #30, .T. ) ;
#56 = ORIENTED_EDGE ( 'NONE', *, *, #209, .F. ) ;
#57 = DIRECTION ( 'NONE',  ( 1.000000000000000000, 0.000000000000000000, -3.717264591378875951E-15 ) ) ;
#58 = DIRECTION ( 'NONE',  ( 3.491481338843133355E-15, -0.000000000000000000, 1.000000000000000000 ) ) ;
#59 = DIRECTION ( 'NONE',  ( 3.491481338843133355E-15, -0.000000000000000000, 1.000000000000000000 ) ) ;
#60 = LOCAL_TIME ( 16, 37, 44.00000000000000000, #117 ) ;
#61 = CARTESIAN_POINT ( 'NONE',  ( -1.282749433769087582E-30, 0.000000000000000000, -3.673940397442059375E-16 ) ) ;
#62 = CARTESIAN_POINT ( 'NONE',  ( 0.1750000000000022371, 0.000000000000000000, 0.6999999999999986233 ) ) ;
#63 = PERSON_AND_ORGANIZATION ( #36, #132 ) ;
#64 = LOCAL_TIME ( 16, 37, 44.00000000000000000, #198 ) ;
#65 = CALENDAR_DATE ( 2023, 1, 2 ) ;
#66 = APPLICATION_CONTEXT ( 'configuration controlled 3d designs of mechanical parts and assemblies' ) ;
#67 = PERSON_AND_ORGANIZATION_ROLE ( 'design_supplier' ) ;
#68 = AXIS2_PLACEMENT_3D ( 'NONE', #78, #143, #215 ) ;
#69 = CALENDAR_DATE ( 2023, 1, 2 ) ;
#70 = EDGE_LOOP ( 'NONE', ( #158 ) ) ;
#71 = AXIS2_PLACEMENT_3D ( 'NONE', #127, #22, #100 ) ;
#72 = EDGE_LOOP ( 'NONE', ( #173 ) ) ;
#73 = EDGE_LOOP ( 'NONE', ( #116 ) ) ;
#74 = AXIS2_PLACEMENT_3D ( 'NONE', #43, #101, #179 ) ;
#75 = PLANE ( 'NONE',  #74 ) ;
#76 = DIRECTION ( 'NONE',  ( 3.491481338843133355E-15, -0.000000000000000000, 1.000000000000000000 ) ) ;
#77 = EDGE_CURVE ( 'NONE', #166, #166, #214, .T. ) ;
#78 = CARTESIAN_POINT ( 'NONE',  ( 0.000000000000000000, 0.000000000000000000, 0.000000000000000000 ) ) ;
#79 = DIRECTION ( 'NONE',  ( -4.275831445896958607E-31, -1.000000000000000000, -1.224646799147353207E-16 ) ) ;
#80 = FACE_BOUND ( 'NONE', #70, .T. ) ;
#81 = APPROVAL_ROLE ( '' ) ;
#82 = APPROVAL_DATE_TIME ( #221, #97 ) ;
#83 = APPROVAL_ROLE ( '' ) ;
#84 = CIRCLE ( 'NONE', #153, 0.1749999999999998224 ) ;
#85 = ORIENTED_EDGE ( 'NONE', *, *, #55, .F. ) ;
#86 = ORIENTED_EDGE ( 'NONE', *, *, #175, .T. ) ;
#87 = CARTESIAN_POINT ( 'NONE',  ( 2.444036937190190588E-15, 0.000000000000000000, 0.6999999999999992895 ) ) ;
#88 = CLOSED_SHELL ( 'NONE', ( #14, #200, #186 ) ) ;
#89 = DIRECTION ( 'NONE',  ( 0.000000000000000000, 1.000000000000000000, 0.000000000000000000 ) ) ;
#90 = FACE_OUTER_BOUND ( 'NONE', #73, .T. ) ;
#91 = CARTESIAN_POINT ( 'NONE',  ( -1.499999999999982236, 0.000000000000000000, 5.109577644174100541 ) ) ;
#92 = DATE_TIME_ROLE ( 'creation_date' ) ;
#93 =( NAMED_UNIT ( * ) PLANE_ANGLE_UNIT ( ) SI_UNIT ( $, .RADIAN. ) );
#94 = AXIS2_PLACEMENT_3D ( 'NONE', #208, #118, #79 ) ;
#95 = APPLICATION_PROTOCOL_DEFINITION ( 'international standard', 'config_control_design', 1994, #66 ) ;
#96 = CARTESIAN_POINT ( 'NONE',  ( 0.1749999999999989342, 0.000000000000000000, -9.784032740417506262E-16 ) ) ;
#97 = APPROVAL ( #48, 'UNSPECIFIED' ) ;
#98 = FACE_OUTER_BOUND ( 'NONE', #1, .T. ) ;
#99 = EDGE_CURVE ( 'NONE', #216, #216, #199, .T. ) ;
#100 = DIRECTION ( 'NONE',  ( 0.000000000000000000, 1.000000000000000000, 0.000000000000000000 ) ) ;
#101 = DIRECTION ( 'NONE',  ( -3.491481338843133355E-15, 1.224646799147353207E-16, -1.000000000000000000 ) ) ;
#102 = PRODUCT_RELATED_PRODUCT_CATEGORY ( 'detail', '', ( #108 ) ) ;
#103 = DIRECTION ( 'NONE',  ( 3.491481338843133355E-15, -0.000000000000000000, 1.000000000000000000 ) ) ;
#104 = DIRECTION ( 'NONE',  ( 4.275831445896959482E-31, 1.000000000000000000, 1.224646799147353207E-16 ) ) ;
#105 = APPROVAL_PERSON_ORGANIZATION ( #51, #220, #83 ) ;
#106 =( LENGTH_UNIT ( ) NAMED_UNIT ( * ) SI_UNIT ( .MILLI., .METRE. ) );
#107 = VERTEX_POINT ( 'NONE', #131 ) ;
#108 = PRODUCT ( '373287', '373287', '', ( #201 ) ) ;
#109 = CARTESIAN_POINT ( 'NONE',  ( 1.316288464743861212E-13, 1.499999999999995337, 37.69999999999999574 ) ) ;
#110 = CONICAL_SURFACE ( 'NONE', #5, 1.499999999999999778, 0.7853981633974453924 ) ;
#111 = PERSON_AND_ORGANIZATION_ROLE ( 'design_owner' ) ;
#112 = VERTEX_POINT ( 'NONE', #109 ) ;
#113 = ADVANCED_FACE ( 'NONE', ( #80, #121 ), #110, .T. ) ;
#114 = CIRCLE ( 'NONE', #20, 1.499999999999999778 ) ;
#115 = APPROVAL_STATUS ( 'not_yet_approved' ) ;
#116 = ORIENTED_EDGE ( 'NONE', *, *, #209, .T. ) ;
#117 = COORDINATED_UNIVERSAL_TIME_OFFSET ( 1, 0, .AHEAD. ) ;
#118 = DIRECTION ( 'NONE',  ( 3.491481338843133355E-15, -1.224646799147353207E-16, 1.000000000000000000 ) ) ;
#119 = APPROVAL_ROLE ( '' ) ;
#120 = DIRECTION ( 'NONE',  ( -3.491481338843133355E-15, 1.224646799147353207E-16, -1.000000000000000000 ) ) ;
#121 = FACE_OUTER_BOUND ( 'NONE', #137, .T. ) ;
#122 = DIRECTION ( 'NONE',  ( 0.000000000000000000, 1.000000000000000000, 0.000000000000000000 ) ) ;
#123 = AXIS2_PLACEMENT_3D ( 'NONE', #192, #58, #177 ) ;
#124 = ADVANCED_BREP_SHAPE_REPRESENTATION ( '373287', ( #26, #24, #2 ), #138 ) ;
#125 = DIRECTION ( 'NONE',  ( 1.000000000000000000, 0.000000000000000000, -3.491481338843134144E-15 ) ) ;
#126 = ADVANCED_FACE ( 'NONE', ( #191, #164 ), #47, .F. ) ;
#127 = CARTESIAN_POINT ( 'NONE',  ( 1.326762908760390423E-13, -4.653657836759941941E-15, 38.00000000000000000 ) ) ;
#128 = PRODUCT_DEFINITION ( 'UNKNOWN', '', #144, #223 ) ;
#129 = PERSON_AND_ORGANIZATION_ROLE ( 'classification_officer' ) ;
#130 = PERSON_AND_ORGANIZATION ( #36, #132 ) ;
#131 = CARTESIAN_POINT ( 'NONE',  ( 0.1750000000000022371, 0.000000000000000000, 0.6999999999999986233 ) ) ;
#132 = ORGANIZATION ( 'UNSPECIFIED', 'UNSPECIFIED', '' ) ;
#133 = CALENDAR_DATE ( 2023, 1, 2 ) ;
#134 = SHAPE_DEFINITION_REPRESENTATION ( #155, #124 ) ;
#135 = ORIENTED_EDGE ( 'NONE', *, *, #175, .F. ) ;
#136 = AXIS2_PLACEMENT_3D ( 'NONE', #11, #76, #197 ) ;
#137 = EDGE_LOOP ( 'NONE', ( #135 ) ) ;
#138 =( GEOMETRIC_REPRESENTATION_CONTEXT ( 3 ) GLOBAL_UNCERTAINTY_ASSIGNED_CONTEXT ( ( #195 ) ) GLOBAL_UNIT_ASSIGNED_CONTEXT ( ( #106, #93, #183 ) ) REPRESENTATION_CONTEXT ( 'NONE', 'WORKASPACE' ) );
#139 = DIRECTION ( 'NONE',  ( 3.491481338843133355E-15, -0.000000000000000000, 1.000000000000000000 ) ) ;
#140 = CC_DESIGN_DATE_AND_TIME_ASSIGNMENT ( #150, #219, ( #176 ) ) ;
#141 = CARTESIAN_POINT ( 'NONE',  ( 2.444036937190190588E-15, 0.000000000000000000, 0.6999999999999992895 ) ) ;
#142 = APPLICATION_CONTEXT ( 'configuration controlled 3d designs of mechanical parts and assemblies' ) ;
#143 = DIRECTION ( 'NONE',  ( 3.491481338843133355E-15, -0.000000000000000000, 1.000000000000000000 ) ) ;
#144 = PRODUCT_DEFINITION_FORMATION_WITH_SPECIFIED_SOURCE ( 'ANY', '', #108, .NOT_KNOWN. ) ;
#145 = ADVANCED_FACE ( 'NONE', ( #182, #7 ), #181, .T. ) ;
#146 = CYLINDRICAL_SURFACE ( 'NONE', #68, 0.1749999999999993783 ) ;
#147 = SECURITY_CLASSIFICATION_LEVEL ( 'unclassified' ) ;
#148 = COORDINATED_UNIVERSAL_TIME_OFFSET ( 1, 0, .AHEAD. ) ;
#149 = CC_DESIGN_SECURITY_CLASSIFICATION ( #176, ( #144 ) ) ;
#150 = DATE_AND_TIME ( #65, #64 ) ;
#151 = APPROVAL ( #115, 'UNSPECIFIED' ) ;
#152 = PERSON_AND_ORGANIZATION ( #36, #132 ) ;
#153 = AXIS2_PLACEMENT_3D ( 'NONE', #87, #59, #57 ) ;
#154 = EDGE_CURVE ( 'NONE', #107, #107, #84, .T. ) ;
#155 = PRODUCT_DEFINITION_SHAPE ( 'NONE', 'NONE',  #128 ) ;
#156 = APPROVAL_DATE_TIME ( #187, #151 ) ;
#157 = EDGE_LOOP ( 'NONE', ( #37 ) ) ;
#158 = ORIENTED_EDGE ( 'NONE', *, *, #77, .T. ) ;
#159 = APPROVAL_PERSON_ORGANIZATION ( #160, #151, #119 ) ;
#160 = PERSON_AND_ORGANIZATION ( #36, #132 ) ;
#161 = EDGE_LOOP ( 'NONE', ( #188 ) ) ;
#162 = CC_DESIGN_APPROVAL ( #220, ( #128 ) ) ;
#163 = FACE_OUTER_BOUND ( 'NONE', #54, .T. ) ;
#164 = FACE_OUTER_BOUND ( 'NONE', #157, .T. ) ;
#165 = FACE_OUTER_BOUND ( 'NONE', #3, .T. ) ;
#166 = VERTEX_POINT ( 'NONE', #10 ) ;
#167 = PLANE ( 'NONE',  #9 ) ;
#168 = APPROVAL_STATUS ( 'not_yet_approved' ) ;
#169 = CARTESIAN_POINT ( 'NONE',  ( 0.000000000000000000, 0.000000000000000000, 0.000000000000000000 ) ) ;
#170 = APPLICATION_PROTOCOL_DEFINITION ( 'international standard', 'config_control_design', 1994, #142 ) ;
#171 = COORDINATED_UNIVERSAL_TIME_OFFSET ( 1, 0, .AHEAD. ) ;
#172 = PERSON_AND_ORGANIZATION ( #36, #132 ) ;
#173 = ORIENTED_EDGE ( 'NONE', *, *, #154, .F. ) ;
#174 = PLANE ( 'NONE',  #94 ) ;
#175 = EDGE_CURVE ( 'NONE', #112, #112, #114, .T. ) ;
#176 = SECURITY_CLASSIFICATION ( '', '', #147 ) ;
#177 = DIRECTION ( 'NONE',  ( -1.000000000000000000, 0.000000000000000000, 3.469446951953614189E-15 ) ) ;
#178 = DIRECTION ( 'NONE',  ( -3.491481338843133355E-15, 1.224646799147353207E-16, -1.000000000000000000 ) ) ;
#179 = DIRECTION ( 'NONE',  ( 4.275831445896958607E-31, 1.000000000000000000, 1.224646799147353207E-16 ) ) ;
#180 = CC_DESIGN_PERSON_AND_ORGANIZATION_ASSIGNMENT ( #15, #33, ( #128 ) ) ;
#181 = CYLINDRICAL_SURFACE ( 'NONE', #193, 1.500000000000000000 ) ;
#182 = FACE_OUTER_BOUND ( 'NONE', #19, .T. ) ;
#183 =( NAMED_UNIT ( * ) SI_UNIT ( $, .STERADIAN. ) SOLID_ANGLE_UNIT ( ) );
#184 = DATE_AND_TIME ( #12, #217 ) ;
#185 = CALENDAR_DATE ( 2023, 1, 2 ) ;
#186 = ADVANCED_FACE ( 'NONE', ( #163 ), #75, .T. ) ;
#187 = DATE_AND_TIME ( #69, #60 ) ;
#188 = ORIENTED_EDGE ( 'NONE', *, *, #77, .F. ) ;
#189 = LOCAL_TIME ( 16, 37, 44.00000000000000000, #222 ) ;
#190 = CC_DESIGN_PERSON_AND_ORGANIZATION_ASSIGNMENT ( #218, #204, ( #144 ) ) ;
#191 = FACE_OUTER_BOUND ( 'NONE', #4, .T. ) ;
#192 = CARTESIAN_POINT ( 'NONE',  ( 1.783999499400391608E-14, 0.000000000000000000, 5.109577644174096100 ) ) ;
#193 = AXIS2_PLACEMENT_3D ( 'NONE', #213, #45, #104 ) ;
#194 = FACE_OUTER_BOUND ( 'NONE', #72, .T. ) ;
#195 = UNCERTAINTY_MEASURE_WITH_UNIT (LENGTH_MEASURE( 1.000000000000000082E-05 ), #106, 'distance_accuracy_value', 'NONE');
#196 = VERTEX_POINT ( 'NONE', #91 ) ;
#197 = DIRECTION ( 'NONE',  ( 1.000000000000000000, 0.000000000000000000, -3.717264591378875951E-15 ) ) ;
#198 = COORDINATED_UNIVERSAL_TIME_OFFSET ( 1, 0, .AHEAD. ) ;
#199 = CIRCLE ( 'NONE', #136, 0.1749999999999998224 ) ;
#200 = ADVANCED_FACE ( 'NONE', ( #90, #165 ), #146, .T. ) ;
#201 = MECHANICAL_CONTEXT ( 'NONE', #142, 'mechanical' ) ;
#202 = VERTEX_POINT ( 'NONE', #96 ) ;
#203 = DIRECTION ( 'NONE',  ( 0.000000000000000000, 0.000000000000000000, 1.000000000000000000 ) ) ;
#204 = PERSON_AND_ORGANIZATION_ROLE ( 'creator' ) ;
#205 = ORIENTED_EDGE ( 'NONE', *, *, #55, .T. ) ;
#206 = CLOSED_SHELL ( 'NONE', ( #145, #113, #39, #126, #44 ) ) ;
#207 = ORIENTED_EDGE ( 'NONE', *, *, #99, .T. ) ;
#208 = CARTESIAN_POINT ( 'NONE',  ( 2.444036937190190193E-15, 1.124819836996393616E-32, 0.6999999999999991784 ) ) ;
#209 = EDGE_CURVE ( 'NONE', #202, #202, #42, .T. ) ;
#210 = AXIS2_PLACEMENT_3D ( 'NONE', #28, #31, #212 ) ;
#211 = CARTESIAN_POINT ( 'NONE',  ( 2.444036937190190193E-15, 1.124819836996393616E-32, 0.6999999999999991784 ) ) ;
#212 = DIRECTION ( 'NONE',  ( 4.275831445896958607E-31, 1.000000000000000000, 1.224646799147353207E-16 ) ) ;
#213 = CARTESIAN_POINT ( 'NONE',  ( 0.000000000000000000, 0.000000000000000000, 0.000000000000000000 ) ) ;
#214 = CIRCLE ( 'NONE', #71, 1.199999999999999956 ) ;
#215 = DIRECTION ( 'NONE',  ( 1.000000000000000000, 0.000000000000000000, -3.491481338843133355E-15 ) ) ;
#216 = VERTEX_POINT ( 'NONE', #62 ) ;
#217 = LOCAL_TIME ( 16, 37, 44.00000000000000000, #171 ) ;
#218 = PERSON_AND_ORGANIZATION ( #36, #132 ) ;
#219 = DATE_TIME_ROLE ( 'classification_date' ) ;
#220 = APPROVAL ( #168, 'UNSPECIFIED' ) ;
#221 = DATE_AND_TIME ( #185, #35 ) ;
#222 = COORDINATED_UNIVERSAL_TIME_OFFSET ( 1, 0, .AHEAD. ) ;
#223 = DESIGN_CONTEXT ( 'detailed design', #66, 'design' ) ;
ENDSEC;
END-ISO-10303-21;
