ISO-10303-21;
HEADER;
FILE_DESCRIPTION (( 'STEP AP203' ),
    '1' );
FILE_NAME ('37288.step',
    '2021-10-15T13:34:44',
    ( '' ),
    ( '' ),
    'SwSTEP 2.0',
    'SolidWorks 2019',
    '' );
FILE_SCHEMA (( 'CONFIG_CONTROL_DESIGN' ));
ENDSEC;

DATA;
#1 = ORIENTED_EDGE ( 'NONE', *, *, #159, .T. ) ;
#2 = EDGE_LOOP ( 'NONE', ( #144 ) ) ;
#3 = FACE_OUTER_BOUND ( 'NONE', #58, .T. ) ;
#4 = CARTESIAN_POINT ( 'NONE',  ( 1.047444401652940007E-13, 2.812049592490889618E-33, 30.00000000000000000 ) ) ;
#5 = CARTESIAN_POINT ( 'NONE',  ( 1.040461438975253740E-13, -3.649447461459112464E-15, 29.80000000000000071 ) ) ;
#6 = APPROVAL_ROLE ( '' ) ;
#7 = DIRECTION ( 'NONE',  ( 3.491481338843133355E-15, -1.224646799147353207E-16, 1.000000000000000000 ) ) ;
#8 = CARTESIAN_POINT ( 'NONE',  ( 7.307072864800132926E-16, -2.562976148679341004E-17, 0.2092828847030658024 ) ) ;
#9 = AXIS2_PLACEMENT_3D ( 'NONE', #75, #176, #147 ) ;
#10 = VERTEX_POINT ( 'NONE', #53 ) ;
#11 = CARTESIAN_POINT ( 'NONE',  ( 0.0000000000000000000, 0.0000000000000000000, 0.0000000000000000000 ) ) ;
#12 = PERSON_AND_ORGANIZATION ( #203, #201 ) ;
#13 = PERSON_AND_ORGANIZATION ( #203, #201 ) ;
#14 = EDGE_CURVE ( 'NONE', #100, #100, #163, .T. ) ;
#15 = PERSON_AND_ORGANIZATION_ROLE ( 'creator' ) ;
#16 = ADVANCED_FACE ( 'NONE', ( #3, #178 ), #106, .T. ) ;
#17 = ORIENTED_EDGE ( 'NONE', *, *, #103, .F. ) ;
#18 = ORIENTED_EDGE ( 'NONE', *, *, #14, .T. ) ;
#19 = ORIENTED_EDGE ( 'NONE', *, *, #129, .T. ) ;
#20 = CC_DESIGN_PERSON_AND_ORGANIZATION_ASSIGNMENT ( #66, #153, ( #197 ) ) ;
#21 =( NAMED_UNIT ( * ) PLANE_ANGLE_UNIT ( ) SI_UNIT ( $, .RADIAN. ) );
#22 = VERTEX_POINT ( 'NONE', #78 ) ;
#23 = AXIS2_PLACEMENT_3D ( 'NONE', #168, #167, #139 ) ;
#24 = APPROVAL_PERSON_ORGANIZATION ( #119, #187, #121 ) ;
#25 = DIRECTION ( 'NONE',  ( -4.275831445896958607E-31, -1.000000000000000000, -1.224646799147353207E-16 ) ) ;
#26 = DIRECTION ( 'NONE',  ( 0.0000000000000000000, 1.000000000000000000, 0.0000000000000000000 ) ) ;
#27 = CIRCLE ( 'NONE', #164, 0.5749999999999925171 ) ;
#28 = ADVANCED_FACE ( 'NONE', ( #77 ), #149, .F. ) ;
#29 = AXIS2_PLACEMENT_3D ( 'NONE', #131, #92, #166 ) ;
#30 = CC_DESIGN_APPROVAL ( #97, ( #197 ) ) ;
#31 = VERTEX_POINT ( 'NONE', #171 ) ;
#32 = DIRECTION ( 'NONE',  ( 5.024165072314604432E-31, 1.000000000000000000, 1.414176746720244601E-16 ) ) ;
#33 = MECHANICAL_CONTEXT ( 'NONE', #145, 'mechanical' ) ;
#34 = APPROVAL_PERSON_ORGANIZATION ( #174, #97, #6 ) ;
#35 =( LENGTH_UNIT ( ) NAMED_UNIT ( * ) SI_UNIT ( .MILLI., .METRE. ) );
#36 = DIRECTION ( 'NONE',  ( -3.491481338843133355E-15, 1.224646799147353207E-16, -1.000000000000000000 ) ) ;
#37 = CALENDAR_DATE ( 2021, 15, 10 ) ;
#38 = DIRECTION ( 'NONE',  ( 0.0000000000000000000, 0.0000000000000000000, 1.000000000000000000 ) ) ;
#39 = AXIS2_PLACEMENT_3D ( 'NONE', #134, #7, #64 ) ;
#40 = APPROVAL_DATE_TIME ( #109, #125 ) ;
#41 = PERSON_AND_ORGANIZATION ( #203, #201 ) ;
#42 = EDGE_LOOP ( 'NONE', ( #17 ) ) ;
#43 = AXIS2_PLACEMENT_3D ( 'NONE', #47, #179, #32 ) ;
#44 = LOCAL_TIME ( 15, 34, 44.00000000000000000, #141 ) ;
#45 = PRODUCT_RELATED_PRODUCT_CATEGORY ( 'detail', '', ( #150 ) ) ;
#46 = EDGE_LOOP ( 'NONE', ( #188 ) ) ;
#47 = CARTESIAN_POINT ( 'NONE',  ( 7.307072864800132926E-16, -2.562976148679341004E-17, 0.2092828847030658024 ) ) ;
#48 = DIRECTION ( 'NONE',  ( 0.0000000000000000000, 1.000000000000000000, 0.0000000000000000000 ) ) ;
#49 = DATE_TIME_ROLE ( 'creation_date' ) ;
#50 = FACE_OUTER_BOUND ( 'NONE', #91, .T. ) ;
#51 = AXIS2_PLACEMENT_3D ( 'NONE', #154, #158, #25 ) ;
#52 = LOCAL_TIME ( 15, 34, 44.00000000000000000, #62 ) ;
#53 = CARTESIAN_POINT ( 'NONE',  ( 1.047444401652940007E-13, 0.3749999999999912292, 30.00000000000000000 ) ) ;
#54 = PERSON_AND_ORGANIZATION_ROLE ( 'design_owner' ) ;
#55 = SECURITY_CLASSIFICATION_LEVEL ( 'unclassified' ) ;
#56 = AXIS2_PLACEMENT_3D ( 'NONE', #120, #194, #98 ) ;
#57 = CC_DESIGN_PERSON_AND_ORGANIZATION_ASSIGNMENT ( #13, #202, ( #161 ) ) ;
#58 = EDGE_LOOP ( 'NONE', ( #72 ) ) ;
#59 = ORIENTED_EDGE ( 'NONE', *, *, #180, .T. ) ;
#60 = APPROVAL_PERSON_ORGANIZATION ( #12, #125, #143 ) ;
#61 =( NAMED_UNIT ( * ) SI_UNIT ( $, .STERADIAN. ) SOLID_ANGLE_UNIT ( ) );
#62 = COORDINATED_UNIVERSAL_TIME_OFFSET ( 1, 0, .AHEAD. ) ;
#63 = CIRCLE ( 'NONE', #56, 0.3749999999999948930 ) ;
#64 = DIRECTION ( 'NONE',  ( -4.275831445896958607E-31, -1.000000000000000000, -1.224646799147353207E-16 ) ) ;
#65 = DIRECTION ( 'NONE',  ( 4.275831445896958607E-31, 1.000000000000000000, 1.224646799147353207E-16 ) ) ;
#66 = PERSON_AND_ORGANIZATION ( #203, #201 ) ;
#67 = PERSON_AND_ORGANIZATION ( #203, #201 ) ;
#68 = FACE_OUTER_BOUND ( 'NONE', #128, .T. ) ;
#69 = APPLICATION_PROTOCOL_DEFINITION ( 'international standard', 'config_control_design', 1994, #123 ) ;
#70 = DATE_TIME_ROLE ( 'classification_date' ) ;
#71 = DATE_AND_TIME ( #162, #142 ) ;
#72 = ORIENTED_EDGE ( 'NONE', *, *, #159, .F. ) ;
#73 = EDGE_LOOP ( 'NONE', ( #18 ) ) ;
#74 = ADVANCED_FACE ( 'NONE', ( #196, #68 ), #181, .T. ) ;
#75 = CARTESIAN_POINT ( 'NONE',  ( 3.491481338843133986E-14, -1.224646799147353454E-15, 10.00000000000000178 ) ) ;
#76 = AXIS2_PLACEMENT_3D ( 'NONE', #4, #95, #152 ) ;
#77 = FACE_OUTER_BOUND ( 'NONE', #42, .T. ) ;
#78 = CARTESIAN_POINT ( 'NONE',  ( 3.491481338843133986E-14, 0.5749999999999912959, 10.00000000000000178 ) ) ;
#79 = CARTESIAN_POINT ( 'NONE',  ( 1.040461438975253740E-13, 0.5749999999999912959, 29.80000000000000071 ) ) ;
#80 = DATE_AND_TIME ( #169, #52 ) ;
#81 = CIRCLE ( 'NONE', #43, 0.5749999999999912959 ) ;
#82 = CARTESIAN_POINT ( 'NONE',  ( 3.491481338843133986E-14, -1.224646799147353454E-15, 10.00000000000000178 ) ) ;
#83 = PRODUCT_DEFINITION_SHAPE ( 'NONE', 'NONE',  #197 ) ;
#84 = DATE_AND_TIME ( #104, #107 ) ;
#85 = FACE_OUTER_BOUND ( 'NONE', #73, .T. ) ;
#86 = CLOSED_SHELL ( 'NONE', ( #90, #170, #136 ) ) ;
#87 = MANIFOLD_SOLID_BREP ( 'Corps-Déplacer/Copier1[2]', #86 ) ;
#88 = AXIS2_PLACEMENT_3D ( 'NONE', #11, #38, #133 ) ;
#89 = MANIFOLD_SOLID_BREP ( 'Corps-Déplacer/Copier1[1]', #93 ) ;
#90 = ADVANCED_FACE ( 'NONE', ( #50 ), #122, .T. ) ;
#91 = EDGE_LOOP ( 'NONE', ( #59 ) ) ;
#92 = DIRECTION ( 'NONE',  ( -3.491481338843133355E-15, 1.224646799147353207E-16, -1.000000000000000000 ) ) ;
#93 = CLOSED_SHELL ( 'NONE', ( #186, #74, #16, #28 ) ) ;
#94 = SECURITY_CLASSIFICATION ( '', '', #55 ) ;
#95 = DIRECTION ( 'NONE',  ( -3.491481338843133355E-15, 1.224646799147353207E-16, -1.000000000000000000 ) ) ;
#96 = ADVANCED_BREP_SHAPE_REPRESENTATION ( '37288', ( #89, #87, #88 ), #112 ) ;
#97 = APPROVAL ( #99, 'UNSPECIFIED' ) ;
#98 = DIRECTION ( 'NONE',  ( 0.0000000000000000000, 1.000000000000000000, 0.0000000000000000000 ) ) ;
#99 = APPROVAL_STATUS ( 'not_yet_approved' ) ;
#100 = VERTEX_POINT ( 'NONE', #137 ) ;
#101 = APPROVAL_DATE_TIME ( #80, #97 ) ;
#102 = CC_DESIGN_SECURITY_CLASSIFICATION ( #94, ( #161 ) ) ;
#103 = EDGE_CURVE ( 'NONE', #10, #10, #63, .T. ) ;
#104 = CALENDAR_DATE ( 2021, 15, 10 ) ;
#105 = DIRECTION ( 'NONE',  ( 3.491481338843133355E-15, -1.224646799147353207E-16, 1.000000000000000000 ) ) ;
#106 = CONICAL_SURFACE ( 'NONE', #29, 0.3749999999999948930, 0.7853981633974516097 ) ;
#107 = LOCAL_TIME ( 15, 34, 44.00000000000000000, #183 ) ;
#108 = PERSON_AND_ORGANIZATION_ROLE ( 'classification_officer' ) ;
#109 = DATE_AND_TIME ( #200, #44 ) ;
#110 = COORDINATED_UNIVERSAL_TIME_OFFSET ( 1, 0, .AHEAD. ) ;
#111 = AXIS2_PLACEMENT_3D ( 'NONE', #8, #105, #117 ) ;
#112 =( GEOMETRIC_REPRESENTATION_CONTEXT ( 3 ) GLOBAL_UNCERTAINTY_ASSIGNED_CONTEXT ( ( #148 ) ) GLOBAL_UNIT_ASSIGNED_CONTEXT ( ( #35, #21, #61 ) ) REPRESENTATION_CONTEXT ( 'NONE', 'WORKASPACE' ) );
#113 = EDGE_LOOP ( 'NONE', ( #189 ) ) ;
#114 = EDGE_LOOP ( 'NONE', ( #115 ) ) ;
#115 = ORIENTED_EDGE ( 'NONE', *, *, #180, .F. ) ;
#116 = DESIGN_CONTEXT ( 'detailed design', #123, 'design' ) ;
#117 = DIRECTION ( 'NONE',  ( -5.024165072314604432E-31, -1.000000000000000000, -1.414176746720244601E-16 ) ) ;
#118 = PLANE ( 'NONE',  #51 ) ;
#119 = PERSON_AND_ORGANIZATION ( #203, #201 ) ;
#120 = CARTESIAN_POINT ( 'NONE',  ( 1.047444401652940007E-13, -3.673940397442059178E-15, 30.00000000000000000 ) ) ;
#121 = APPROVAL_ROLE ( '' ) ;
#122 = CONICAL_SURFACE ( 'NONE', #111, 0.5749999999999912959, 1.221730476396026610 ) ;
#123 = APPLICATION_CONTEXT ( 'configuration controlled 3d designs of mechanical parts and assemblies' ) ;
#124 = VERTEX_POINT ( 'NONE', #79 ) ;
#125 = APPROVAL ( #175, 'UNSPECIFIED' ) ;
#126 = SHAPE_DEFINITION_REPRESENTATION ( #83, #96 ) ;
#127 = CC_DESIGN_DATE_AND_TIME_ASSIGNMENT ( #71, #70, ( #94 ) ) ;
#128 = EDGE_LOOP ( 'NONE', ( #1 ) ) ;
#129 = EDGE_CURVE ( 'NONE', #22, #22, #27, .T. ) ;
#130 = CC_DESIGN_APPROVAL ( #187, ( #161 ) ) ;
#131 = CARTESIAN_POINT ( 'NONE',  ( 1.047444401652940007E-13, -3.673940397442059178E-15, 30.00000000000000000 ) ) ;
#132 = AXIS2_PLACEMENT_3D ( 'NONE', #140, #151, #65 ) ;
#133 = DIRECTION ( 'NONE',  ( 1.000000000000000000, 0.0000000000000000000, 0.0000000000000000000 ) ) ;
#134 = CARTESIAN_POINT ( 'NONE',  ( 3.491481338843133986E-14, 4.311809375152766042E-33, 10.00000000000000178 ) ) ;
#135 = COORDINATED_UNIVERSAL_TIME_OFFSET ( 1, 0, .AHEAD. ) ;
#136 = ADVANCED_FACE ( 'NONE', ( #173 ), #191, .T. ) ;
#137 = CARTESIAN_POINT ( 'NONE',  ( 3.491481338843133986E-14, 0.5749999999999912959, 10.00000000000000178 ) ) ;
#138 = APPROVAL_STATUS ( 'not_yet_approved' ) ;
#139 = DIRECTION ( 'NONE',  ( 4.275831445896958607E-31, 1.000000000000000000, 1.224646799147353207E-16 ) ) ;
#140 = CARTESIAN_POINT ( 'NONE',  ( 0.0000000000000000000, 0.0000000000000000000, 0.0000000000000000000 ) ) ;
#141 = COORDINATED_UNIVERSAL_TIME_OFFSET ( 1, 0, .AHEAD. ) ;
#142 = LOCAL_TIME ( 15, 34, 44.00000000000000000, #110 ) ;
#143 = APPROVAL_ROLE ( '' ) ;
#144 = ORIENTED_EDGE ( 'NONE', *, *, #14, .F. ) ;
#145 = APPLICATION_CONTEXT ( 'configuration controlled 3d designs of mechanical parts and assemblies' ) ;
#146 = AXIS2_PLACEMENT_3D ( 'NONE', #5, #198, #26 ) ;
#147 = DIRECTION ( 'NONE',  ( 0.0000000000000000000, 1.000000000000000000, 0.0000000000000000000 ) ) ;
#148 = UNCERTAINTY_MEASURE_WITH_UNIT (LENGTH_MEASURE( 1.000000000000000082E-05 ), #35, 'distance_accuracy_value', 'NONE');
#149 = PLANE ( 'NONE',  #76 ) ;
#150 = PRODUCT ( '37288', '37288', '', ( #33 ) ) ;
#151 = DIRECTION ( 'NONE',  ( -3.491481338843133355E-15, 1.224646799147353207E-16, -1.000000000000000000 ) ) ;
#152 = DIRECTION ( 'NONE',  ( 4.275831445896958607E-31, 1.000000000000000000, 1.224646799147353207E-16 ) ) ;
#153 = PERSON_AND_ORGANIZATION_ROLE ( 'creator' ) ;
#154 = CARTESIAN_POINT ( 'NONE',  ( 3.491481338843133986E-14, 4.311809375152766042E-33, 10.00000000000000178 ) ) ;
#155 = PERSON_AND_ORGANIZATION ( #203, #201 ) ;
#156 = FACE_OUTER_BOUND ( 'NONE', #177, .T. ) ;
#157 = APPROVAL_DATE_TIME ( #84, #187 ) ;
#158 = DIRECTION ( 'NONE',  ( 3.491481338843133355E-15, -1.224646799147353207E-16, 1.000000000000000000 ) ) ;
#159 = EDGE_CURVE ( 'NONE', #124, #124, #185, .T. ) ;
#160 = CC_DESIGN_PERSON_AND_ORGANIZATION_ASSIGNMENT ( #155, #54, ( #150 ) ) ;
#161 = PRODUCT_DEFINITION_FORMATION_WITH_SPECIFIED_SOURCE ( 'ANY', '', #150, .NOT_KNOWN. ) ;
#162 = CALENDAR_DATE ( 2021, 15, 10 ) ;
#163 = CIRCLE ( 'NONE', #9, 0.5749999999999925171 ) ;
#164 = AXIS2_PLACEMENT_3D ( 'NONE', #82, #36, #48 ) ;
#165 = CC_DESIGN_PERSON_AND_ORGANIZATION_ASSIGNMENT ( #67, #15, ( #161 ) ) ;
#166 = DIRECTION ( 'NONE',  ( 0.0000000000000000000, 1.000000000000000000, 0.0000000000000000000 ) ) ;
#167 = DIRECTION ( 'NONE',  ( -3.491481338843133355E-15, 1.224646799147353207E-16, -1.000000000000000000 ) ) ;
#168 = CARTESIAN_POINT ( 'NONE',  ( 0.0000000000000000000, 0.0000000000000000000, 0.0000000000000000000 ) ) ;
#169 = CALENDAR_DATE ( 2021, 15, 10 ) ;
#170 = ADVANCED_FACE ( 'NONE', ( #182, #156 ), #199, .T. ) ;
#171 = CARTESIAN_POINT ( 'NONE',  ( 7.307072864800135884E-16, 0.5749999999999912959, 0.2092828847030658856 ) ) ;
#172 = CC_DESIGN_APPROVAL ( #125, ( #94 ) ) ;
#173 = FACE_OUTER_BOUND ( 'NONE', #113, .T. ) ;
#174 = PERSON_AND_ORGANIZATION ( #203, #201 ) ;
#175 = APPROVAL_STATUS ( 'not_yet_approved' ) ;
#176 = DIRECTION ( 'NONE',  ( -3.491481338843133355E-15, 1.224646799147353207E-16, -1.000000000000000000 ) ) ;
#177 = EDGE_LOOP ( 'NONE', ( #19 ) ) ;
#178 = FACE_BOUND ( 'NONE', #46, .T. ) ;
#179 = DIRECTION ( 'NONE',  ( -3.491481338843133355E-15, 1.224646799147353207E-16, -1.000000000000000000 ) ) ;
#180 = EDGE_CURVE ( 'NONE', #31, #31, #81, .T. ) ;
#181 = CYLINDRICAL_SURFACE ( 'NONE', #132, 0.5749999999999937383 ) ;
#182 = FACE_OUTER_BOUND ( 'NONE', #114, .T. ) ;
#183 = COORDINATED_UNIVERSAL_TIME_OFFSET ( 1, 0, .AHEAD. ) ;
#184 = CC_DESIGN_DATE_AND_TIME_ASSIGNMENT ( #195, #49, ( #197 ) ) ;
#185 = CIRCLE ( 'NONE', #146, 0.5749999999999949596 ) ;
#186 = ADVANCED_FACE ( 'NONE', ( #85 ), #118, .F. ) ;
#187 = APPROVAL ( #138, 'UNSPECIFIED' ) ;
#188 = ORIENTED_EDGE ( 'NONE', *, *, #103, .T. ) ;
#189 = ORIENTED_EDGE ( 'NONE', *, *, #129, .F. ) ;
#190 = LOCAL_TIME ( 15, 34, 44.00000000000000000, #135 ) ;
#191 = PLANE ( 'NONE',  #39 ) ;
#192 = CC_DESIGN_PERSON_AND_ORGANIZATION_ASSIGNMENT ( #41, #108, ( #94 ) ) ;
#193 = APPLICATION_PROTOCOL_DEFINITION ( 'international standard', 'config_control_design', 1994, #145 ) ;
#194 = DIRECTION ( 'NONE',  ( -3.491481338843133355E-15, 1.224646799147353207E-16, -1.000000000000000000 ) ) ;
#195 = DATE_AND_TIME ( #37, #190 ) ;
#196 = FACE_OUTER_BOUND ( 'NONE', #2, .T. ) ;
#197 = PRODUCT_DEFINITION ( 'UNKNOWN', '', #161, #116 ) ;
#198 = DIRECTION ( 'NONE',  ( -3.491481338843133355E-15, 1.224646799147353207E-16, -1.000000000000000000 ) ) ;
#199 = CYLINDRICAL_SURFACE ( 'NONE', #23, 0.5749999999999919620 ) ;
#200 = CALENDAR_DATE ( 2021, 15, 10 ) ;
#201 = ORGANIZATION ( 'UNSPECIFIED', 'UNSPECIFIED', '' ) ;
#202 = PERSON_AND_ORGANIZATION_ROLE ( 'design_supplier' ) ;
#203 = PERSON ( 'UNSPECIFIED', 'UNSPECIFIED', 'UNSPECIFIED', ('UNSPECIFIED'), ('UNSPECIFIED'), ('UNSPECIFIED') ) ;
ENDSEC;
END-ISO-10303-21;
