ISO-10303-21;
HEADER;
FILE_DESCRIPTION (( 'STEP AP203' ),
    '1' );
FILE_NAME ('3728.step',
    '2021-12-06T12:59:31',
    ( '' ),
    ( '' ),
    'SwSTEP 2.0',
    'SolidWorks 2019',
    '' );
FILE_SCHEMA (( 'CONFIG_CONTROL_DESIGN' ));
ENDSEC;

DATA;
#1 = CARTESIAN_POINT ( 'NONE',  ( 1.396592535537252080E-14, -1.112291097817873252E-15, 3.999999999999996447 ) ) ;
#2 = FACE_OUTER_BOUND ( 'NONE', #105, .T. ) ;
#3 = CYLINDRICAL_SURFACE ( 'NONE', #80, 12.50000000000000000 ) ;
#4 = FACE_OUTER_BOUND ( 'NONE', #104, .T. ) ;
#5 = CC_DESIGN_PERSON_AND_ORGANIZATION_ASSIGNMENT ( #12, #88, ( #142 ) ) ;
#6 = FACE_OUTER_BOUND ( 'NONE', #144, .T. ) ;
#7 = PERSON_AND_ORGANIZATION ( #21, #54 ) ;
#8 =( LENGTH_UNIT ( ) NAMED_UNIT ( * ) SI_UNIT ( .MILLI., .METRE. ) );
#9 = AXIS2_PLACEMENT_3D ( 'NONE', #90, #148, #160 ) ;
#10 = APPLICATION_PROTOCOL_DEFINITION ( 'international standard', 'config_control_design', 1994, #168 ) ;
#11 = PERSON_AND_ORGANIZATION_ROLE ( 'design_owner' ) ;
#12 = PERSON_AND_ORGANIZATION ( #21, #54 ) ;
#13 = CC_DESIGN_DATE_AND_TIME_ASSIGNMENT ( #84, #109, ( #76 ) ) ;
#14 = CARTESIAN_POINT ( 'NONE',  ( -1.213607378560140828E-29, 9.665558486600718553E-31, -3.475909680680857339E-15 ) ) ;
#15 = AXIS2_PLACEMENT_3D ( 'NONE', #14, #29, #157 ) ;
#16 = EDGE_LOOP ( 'NONE', ( #66 ) ) ;
#17 = ADVANCED_BREP_SHAPE_REPRESENTATION ( '3728', ( #131, #28 ), #20 ) ;
#18 = EDGE_LOOP ( 'NONE', ( #45 ) ) ;
#19 = DIRECTION ( 'NONE',  ( -3.491481338843133355E-15, 2.780727744544685595E-16, -1.000000000000000000 ) ) ;
#20 =( GEOMETRIC_REPRESENTATION_CONTEXT ( 3 ) GLOBAL_UNCERTAINTY_ASSIGNED_CONTEXT ( ( #52 ) ) GLOBAL_UNIT_ASSIGNED_CONTEXT ( ( #8, #59, #96 ) ) REPRESENTATION_CONTEXT ( 'NONE', 'WORKASPACE' ) );
#21 = PERSON ( 'UNSPECIFIED', 'UNSPECIFIED', 'UNSPECIFIED', ('UNSPECIFIED'), ('UNSPECIFIED'), ('UNSPECIFIED') ) ;
#22 = PERSON_AND_ORGANIZATION ( #21, #54 ) ;
#23 = APPROVAL_DATE_TIME ( #135, #61 ) ;
#24 = CARTESIAN_POINT ( 'NONE',  ( 1.396592535537253342E-14, 12.50000000000000000, 4.000000000000000000 ) ) ;
#25 = CALENDAR_DATE ( 2021, 6, 12 ) ;
#26 = APPROVAL_DATE_TIME ( #134, #46 ) ;
#27 = SECURITY_CLASSIFICATION ( '', '', #138 ) ;
#28 = AXIS2_PLACEMENT_3D ( 'NONE', #74, #163, #37 ) ;
#29 = DIRECTION ( 'NONE',  ( -3.491481338843133355E-15, 2.780727744544685595E-16, -1.000000000000000000 ) ) ;
#30 = EDGE_LOOP ( 'NONE', ( #143 ) ) ;
#31 = LOCAL_TIME ( 13, 59, 31.00000000000000000, #98 ) ;
#32 = DIRECTION ( 'NONE',  ( 9.708859028481124729E-31, 1.000000000000000000, 2.780727744544686088E-16 ) ) ;
#33 = EDGE_CURVE ( 'NONE', #35, #35, #156, .T. ) ;
#34 = CARTESIAN_POINT ( 'NONE',  ( -3.883543611392450592E-30, 3.092978715712229447E-31, -1.112291097817874238E-15 ) ) ;
#35 = VERTEX_POINT ( 'NONE', #83 ) ;
#36 = COORDINATED_UNIVERSAL_TIME_OFFSET ( 1, 0, .AHEAD. ) ;
#37 = DIRECTION ( 'NONE',  ( 1.000000000000000000, 0.0000000000000000000, 0.0000000000000000000 ) ) ;
#38 = APPROVAL_ROLE ( '' ) ;
#39 = DATE_AND_TIME ( #40, #154 ) ;
#40 = CALENDAR_DATE ( 2021, 6, 12 ) ;
#41 = ADVANCED_FACE ( 'NONE', ( #161, #6 ), #3, .T. ) ;
#42 = CC_DESIGN_APPROVAL ( #118, ( #76 ) ) ;
#43 = EDGE_CURVE ( 'NONE', #68, #68, #128, .T. ) ;
#44 = CARTESIAN_POINT ( 'NONE',  ( 1.396592535537253027E-14, 4.000000000000000000, 3.999999999999999112 ) ) ;
#45 = ORIENTED_EDGE ( 'NONE', *, *, #43, .F. ) ;
#46 = APPROVAL ( #51, 'UNSPECIFIED' ) ;
#47 = DIRECTION ( 'NONE',  ( 9.708859028481124729E-31, 1.000000000000000000, 2.780727744544685595E-16 ) ) ;
#48 = FACE_OUTER_BOUND ( 'NONE', #89, .T. ) ;
#49 = CALENDAR_DATE ( 2021, 6, 12 ) ;
#50 = VERTEX_POINT ( 'NONE', #24 ) ;
#51 = APPROVAL_STATUS ( 'not_yet_approved' ) ;
#52 = UNCERTAINTY_MEASURE_WITH_UNIT (LENGTH_MEASURE( 1.000000000000000082E-05 ), #8, 'distance_accuracy_value', 'NONE');
#53 = COORDINATED_UNIVERSAL_TIME_OFFSET ( 1, 0, .AHEAD. ) ;
#54 = ORGANIZATION ( 'UNSPECIFIED', 'UNSPECIFIED', '' ) ;
#55 = AXIS2_PLACEMENT_3D ( 'NONE', #130, #93, #149 ) ;
#56 = DIRECTION ( 'NONE',  ( -3.491481338843133355E-15, 2.780727744544685595E-16, -1.000000000000000000 ) ) ;
#57 = DIRECTION ( 'NONE',  ( 9.708859028481124729E-31, 1.000000000000000000, 2.780727744544685595E-16 ) ) ;
#58 = DIRECTION ( 'NONE',  ( 3.491481338843133355E-15, -2.780727744544685595E-16, 1.000000000000000000 ) ) ;
#59 =( NAMED_UNIT ( * ) PLANE_ANGLE_UNIT ( ) SI_UNIT ( $, .RADIAN. ) );
#60 = PERSON_AND_ORGANIZATION_ROLE ( 'creator' ) ;
#61 = APPROVAL ( #69, 'UNSPECIFIED' ) ;
#62 = APPROVAL_ROLE ( '' ) ;
#63 = CIRCLE ( 'NONE', #159, 12.50000000000000178 ) ;
#64 = CC_DESIGN_PERSON_AND_ORGANIZATION_ASSIGNMENT ( #22, #11, ( #152 ) ) ;
#65 = ORIENTED_EDGE ( 'NONE', *, *, #111, .F. ) ;
#66 = ORIENTED_EDGE ( 'NONE', *, *, #111, .T. ) ;
#67 = PLANE ( 'NONE',  #86 ) ;
#68 = VERTEX_POINT ( 'NONE', #120 ) ;
#69 = APPROVAL_STATUS ( 'not_yet_approved' ) ;
#70 = PERSON_AND_ORGANIZATION ( #21, #54 ) ;
#71 = AXIS2_PLACEMENT_3D ( 'NONE', #34, #114, #47 ) ;
#72 = LOCAL_TIME ( 13, 59, 31.00000000000000000, #53 ) ;
#73 = EDGE_CURVE ( 'NONE', #102, #102, #146, .T. ) ;
#74 = CARTESIAN_POINT ( 'NONE',  ( 0.0000000000000000000, 0.0000000000000000000, 0.0000000000000000000 ) ) ;
#75 = APPROVAL_STATUS ( 'not_yet_approved' ) ;
#76 = PRODUCT_DEFINITION ( 'UNKNOWN', '', #142, #106 ) ;
#77 = AXIS2_PLACEMENT_3D ( 'NONE', #103, #115, #57 ) ;
#78 = CARTESIAN_POINT ( 'NONE',  ( 0.0000000000000000000, 0.0000000000000000000, 0.0000000000000000000 ) ) ;
#79 = ORIENTED_EDGE ( 'NONE', *, *, #73, .T. ) ;
#80 = AXIS2_PLACEMENT_3D ( 'NONE', #78, #19, #32 ) ;
#81 = FACE_OUTER_BOUND ( 'NONE', #18, .T. ) ;
#82 = FACE_BOUND ( 'NONE', #133, .T. ) ;
#83 = CARTESIAN_POINT ( 'NONE',  ( -2.736911063134408342E-45, 12.50000000000000000, 0.0000000000000000000 ) ) ;
#84 = DATE_AND_TIME ( #121, #72 ) ;
#85 = CALENDAR_DATE ( 2021, 6, 12 ) ;
#86 = AXIS2_PLACEMENT_3D ( 'NONE', #44, #58, #92 ) ;
#87 = COORDINATED_UNIVERSAL_TIME_OFFSET ( 1, 0, .AHEAD. ) ;
#88 = PERSON_AND_ORGANIZATION_ROLE ( 'creator' ) ;
#89 = EDGE_LOOP ( 'NONE', ( #65 ) ) ;
#90 = CARTESIAN_POINT ( 'NONE',  ( 1.396592535537253027E-14, -1.112291097817874041E-15, 3.999999999999999112 ) ) ;
#91 = FACE_BOUND ( 'NONE', #30, .T. ) ;
#92 = DIRECTION ( 'NONE',  ( -9.708859028481124729E-31, -1.000000000000000000, -2.780727744544685595E-16 ) ) ;
#93 = DIRECTION ( 'NONE',  ( -3.491481338843133355E-15, 2.780727744544685595E-16, -1.000000000000000000 ) ) ;
#94 = APPROVAL_ROLE ( '' ) ;
#95 = PERSON_AND_ORGANIZATION ( #21, #54 ) ;
#96 =( NAMED_UNIT ( * ) SI_UNIT ( $, .STERADIAN. ) SOLID_ANGLE_UNIT ( ) );
#97 = APPLICATION_PROTOCOL_DEFINITION ( 'international standard', 'config_control_design', 1994, #110 ) ;
#98 = COORDINATED_UNIVERSAL_TIME_OFFSET ( 1, 0, .AHEAD. ) ;
#99 = APPROVAL_PERSON_ORGANIZATION ( #100, #118, #38 ) ;
#100 = PERSON_AND_ORGANIZATION ( #21, #54 ) ;
#101 = CC_DESIGN_DATE_AND_TIME_ASSIGNMENT ( #122, #166, ( #27 ) ) ;
#102 = VERTEX_POINT ( 'NONE', #123 ) ;
#103 = CARTESIAN_POINT ( 'NONE',  ( -4.126265087104478141E-30, 4.000000000000000000, -1.181809291431491550E-15 ) ) ;
#104 = EDGE_LOOP ( 'NONE', ( #147 ) ) ;
#105 = EDGE_LOOP ( 'NONE', ( #79 ) ) ;
#106 = DESIGN_CONTEXT ( 'detailed design', #168, 'design' ) ;
#107 = LOCAL_TIME ( 13, 59, 31.00000000000000000, #153 ) ;
#108 = SHAPE_DEFINITION_REPRESENTATION ( #116, #17 ) ;
#109 = DATE_TIME_ROLE ( 'creation_date' ) ;
#110 = APPLICATION_CONTEXT ( 'configuration controlled 3d designs of mechanical parts and assemblies' ) ;
#111 = EDGE_CURVE ( 'NONE', #50, #50, #63, .T. ) ;
#112 = APPROVAL_PERSON_ORGANIZATION ( #150, #61, #94 ) ;
#113 = LOCAL_TIME ( 13, 59, 31.00000000000000000, #36 ) ;
#114 = DIRECTION ( 'NONE',  ( -3.491481338843133355E-15, 2.780727744544685595E-16, -1.000000000000000000 ) ) ;
#115 = DIRECTION ( 'NONE',  ( -3.491481338843133355E-15, 2.780727744544685595E-16, -1.000000000000000000 ) ) ;
#116 = PRODUCT_DEFINITION_SHAPE ( 'NONE', 'NONE',  #76 ) ;
#117 = ORIENTED_EDGE ( 'NONE', *, *, #43, .T. ) ;
#118 = APPROVAL ( #75, 'UNSPECIFIED' ) ;
#119 = ADVANCED_FACE ( 'NONE', ( #82, #48 ), #67, .T. ) ;
#120 = CARTESIAN_POINT ( 'NONE',  ( 1.396592535537253342E-14, 4.000000000000000000, 4.000000000000000000 ) ) ;
#121 = CALENDAR_DATE ( 2021, 6, 12 ) ;
#122 = DATE_AND_TIME ( #49, #107 ) ;
#123 = CARTESIAN_POINT ( 'NONE',  ( -6.842277657836020854E-46, 4.000000000000000000, 0.0000000000000000000 ) ) ;
#124 = MECHANICAL_CONTEXT ( 'NONE', #110, 'mechanical' ) ;
#125 = APPROVAL_PERSON_ORGANIZATION ( #165, #46, #62 ) ;
#126 = CC_DESIGN_PERSON_AND_ORGANIZATION_ASSIGNMENT ( #95, #140, ( #27 ) ) ;
#127 = ORIENTED_EDGE ( 'NONE', *, *, #33, .F. ) ;
#128 = CIRCLE ( 'NONE', #9, 4.000000000000000888 ) ;
#129 = PLANE ( 'NONE',  #77 ) ;
#130 = CARTESIAN_POINT ( 'NONE',  ( 0.0000000000000000000, 0.0000000000000000000, 0.0000000000000000000 ) ) ;
#131 = MANIFOLD_SOLID_BREP ( 'Corps-Déplacer/Copier1', #162 ) ;
#132 = DIRECTION ( 'NONE',  ( 9.860761315262645816E-31, 1.000000000000000000, 2.775557561562890858E-16 ) ) ;
#133 = EDGE_LOOP ( 'NONE', ( #117 ) ) ;
#134 = DATE_AND_TIME ( #85, #31 ) ;
#135 = DATE_AND_TIME ( #25, #113 ) ;
#136 = PERSON_AND_ORGANIZATION_ROLE ( 'design_supplier' ) ;
#137 = CC_DESIGN_SECURITY_CLASSIFICATION ( #27, ( #142 ) ) ;
#138 = SECURITY_CLASSIFICATION_LEVEL ( 'unclassified' ) ;
#139 = PRODUCT_RELATED_PRODUCT_CATEGORY ( 'detail', '', ( #152 ) ) ;
#140 = PERSON_AND_ORGANIZATION_ROLE ( 'classification_officer' ) ;
#141 = ADVANCED_FACE ( 'NONE', ( #4, #91 ), #129, .T. ) ;
#142 = PRODUCT_DEFINITION_FORMATION_WITH_SPECIFIED_SOURCE ( 'ANY', '', #152, .NOT_KNOWN. ) ;
#143 = ORIENTED_EDGE ( 'NONE', *, *, #73, .F. ) ;
#144 = EDGE_LOOP ( 'NONE', ( #127 ) ) ;
#145 = ADVANCED_FACE ( 'NONE', ( #2, #81 ), #158, .F. ) ;
#146 = CIRCLE ( 'NONE', #71, 4.000000000000000000 ) ;
#147 = ORIENTED_EDGE ( 'NONE', *, *, #33, .T. ) ;
#148 = DIRECTION ( 'NONE',  ( -3.491481338843133355E-15, 2.780727744544685595E-16, -1.000000000000000000 ) ) ;
#149 = DIRECTION ( 'NONE',  ( 9.708859028481124729E-31, 1.000000000000000000, 2.780727744544685595E-16 ) ) ;
#150 = PERSON_AND_ORGANIZATION ( #21, #54 ) ;
#151 = CC_DESIGN_APPROVAL ( #46, ( #142 ) ) ;
#152 = PRODUCT ( '3728', '3728', '', ( #124 ) ) ;
#153 = COORDINATED_UNIVERSAL_TIME_OFFSET ( 1, 0, .AHEAD. ) ;
#154 = LOCAL_TIME ( 13, 59, 31.00000000000000000, #87 ) ;
#155 = APPROVAL_DATE_TIME ( #39, #118 ) ;
#156 = CIRCLE ( 'NONE', #15, 12.50000000000000000 ) ;
#157 = DIRECTION ( 'NONE',  ( 9.708859028481124729E-31, 1.000000000000000000, 2.780727744544686088E-16 ) ) ;
#158 = CYLINDRICAL_SURFACE ( 'NONE', #55, 4.000000000000000000 ) ;
#159 = AXIS2_PLACEMENT_3D ( 'NONE', #1, #56, #132 ) ;
#160 = DIRECTION ( 'NONE',  ( 7.703719777548941661E-31, 1.000000000000000000, 2.168404344971008375E-16 ) ) ;
#161 = FACE_OUTER_BOUND ( 'NONE', #16, .T. ) ;
#162 = CLOSED_SHELL ( 'NONE', ( #141, #41, #119, #145 ) ) ;
#163 = DIRECTION ( 'NONE',  ( 0.0000000000000000000, 0.0000000000000000000, 1.000000000000000000 ) ) ;
#164 = CC_DESIGN_PERSON_AND_ORGANIZATION_ASSIGNMENT ( #70, #60, ( #76 ) ) ;
#165 = PERSON_AND_ORGANIZATION ( #21, #54 ) ;
#166 = DATE_TIME_ROLE ( 'classification_date' ) ;
#167 = CC_DESIGN_APPROVAL ( #61, ( #27 ) ) ;
#168 = APPLICATION_CONTEXT ( 'configuration controlled 3d designs of mechanical parts and assemblies' ) ;
#169 = CC_DESIGN_PERSON_AND_ORGANIZATION_ASSIGNMENT ( #7, #136, ( #142 ) ) ;
ENDSEC;
END-ISO-10303-21;
