ISO-10303-21;
HEADER;
FILE_DESCRIPTION (( 'STEP AP203' ),
    '1' );
FILE_NAME ('372756.step',
    '2023-03-31T07:09:10',
    ( '' ),
    ( '' ),
    'SwSTEP 2.0',
    'SolidWorks 2022',
    '' );
FILE_SCHEMA (( 'CONFIG_CONTROL_DESIGN' ));
ENDSEC;

DATA;
#1 = EDGE_CURVE ( 'NONE', #283, #245, #256, .T. ) ;
#2 = CIRCLE ( 'NONE', #140, 5.999999999999997335 ) ;
#3 = LOCAL_TIME ( 9, 9, 10.00000000000000000, #69 ) ;
#4 = CC_DESIGN_APPROVAL ( #189, ( #73 ) ) ;
#5 = DIRECTION ( 'NONE',  ( 4.275831445896958607E-31, 1.000000000000000000, 1.224646799147353207E-16 ) ) ;
#6 = CARTESIAN_POINT ( 'NONE',  ( 7.347880794884082265E-16, -5.999999999999989342, -7.347880794884131569E-16 ) ) ;
#7 = PLANE ( 'NONE',  #281 ) ;
#8 = EDGE_CURVE ( 'NONE', #244, #206, #2, .T. ) ;
#9 = CALENDAR_DATE ( 2023, 31, 3 ) ;
#10 = DIRECTION ( 'NONE',  ( -3.491481338843133355E-15, 1.224646799147353207E-16, -1.000000000000000000 ) ) ;
#11 = ORIENTED_EDGE ( 'NONE', *, *, #121, .T. ) ;
#12 = VECTOR ( 'NONE', #52, 1000.000000000000000 ) ;
#13 = PERSON_AND_ORGANIZATION ( #290, #296 ) ;
#14 = CC_DESIGN_APPROVAL ( #301, ( #211 ) ) ;
#15 = DIRECTION ( 'NONE',  ( 4.275831445896958607E-31, 1.000000000000000000, 1.224646799147353207E-16 ) ) ;
#16 = EDGE_LOOP ( 'NONE', ( #225, #311, #224, #110 ) ) ;
#17 = PERSON_AND_ORGANIZATION ( #290, #296 ) ;
#18 = DIRECTION ( 'NONE',  ( 4.275831445896958607E-31, 1.000000000000000000, 1.224646799147353207E-16 ) ) ;
#19 = ORIENTED_EDGE ( 'NONE', *, *, #184, .T. ) ;
#20 = COORDINATED_UNIVERSAL_TIME_OFFSET ( 1, 0, .AHEAD. ) ;
#21 = CARTESIAN_POINT ( 'NONE',  ( 1.047444401652940007E-13, 5.999999999999987566, 30.00000000000000000 ) ) ;
#22 = PERSON_AND_ORGANIZATION ( #290, #296 ) ;
#23 = CARTESIAN_POINT ( 'NONE',  ( 1.047444401652940007E-13, 4.499279347985561328E-32, 30.00000000000000000 ) ) ;
#24 = DIRECTION ( 'NONE',  ( 3.491481338843133355E-15, -1.224646799147353207E-16, 1.000000000000000000 ) ) ;
#25 = VECTOR ( 'NONE', #247, 1000.000000000000000 ) ;
#26 = ORIENTED_EDGE ( 'NONE', *, *, #284, .T. ) ;
#27 = CC_DESIGN_PERSON_AND_ORGANIZATION_ASSIGNMENT ( #134, #152, ( #211 ) ) ;
#28 = DIRECTION ( 'NONE',  ( -2.468850131082257849E-15, 0.7071067811865496822, -0.7071067811865453523 ) ) ;
#29 = CYLINDRICAL_SURFACE ( 'NONE', #186, 5.999999999999989342 ) ;
#30 = FACE_OUTER_BOUND ( 'NONE', #120, .T. ) ;
#31 = ADVANCED_FACE ( 'NONE', ( #83 ), #132, .F. ) ;
#32 = AXIS2_PLACEMENT_3D ( 'NONE', #242, #236, #5 ) ;
#33 = APPROVAL_STATUS ( 'not_yet_approved' ) ;
#34 = CARTESIAN_POINT ( 'NONE',  ( 2.778849275756844112E-13, -4.800000000000007816, 80.00000000000000000 ) ) ;
#35 = UNCERTAINTY_MEASURE_WITH_UNIT (LENGTH_MEASURE( 1.000000000000000082E-05 ), #309, 'distance_accuracy_value', 'NONE');
#36 = DATE_AND_TIME ( #58, #229 ) ;
#37 = CARTESIAN_POINT ( 'NONE',  ( 2.565498867538173062E-30, 5.999999999999994671, 7.347880794884112834E-16 ) ) ;
#38 = DIRECTION ( 'NONE',  ( -3.491481338843133355E-15, 1.224646799147353207E-16, -1.000000000000000000 ) ) ;
#39 = ORIENTED_EDGE ( 'NONE', *, *, #97, .T. ) ;
#40 = AXIS2_PLACEMENT_3D ( 'NONE', #237, #105, #289 ) ;
#41 = ORIENTED_EDGE ( 'NONE', *, *, #310, .F. ) ;
#42 = PRODUCT_DEFINITION_FORMATION_WITH_SPECIFIED_SOURCE ( 'ANY', '', #75, .NOT_KNOWN. ) ;
#43 = VERTEX_POINT ( 'NONE', #62 ) ;
#44 = VERTEX_POINT ( 'NONE', #86 ) ;
#45 = ORIENTED_EDGE ( 'NONE', *, *, #1, .T. ) ;
#46 = DIRECTION ( 'NONE',  ( 0.000000000000000000, 1.000000000000000000, 0.000000000000000000 ) ) ;
#47 = ADVANCED_FACE ( 'NONE', ( #149 ), #272, .T. ) ;
#48 = CARTESIAN_POINT ( 'NONE',  ( 5.310700816213539860E-14, -5.999999999999987566, -1.347113723649755927E-15 ) ) ;
#49 = DIRECTION ( 'NONE',  ( 0.000000000000000000, 0.000000000000000000, 1.000000000000000000 ) ) ;
#50 = CC_DESIGN_PERSON_AND_ORGANIZATION_ASSIGNMENT ( #154, #172, ( #42 ) ) ;
#51 = EDGE_CURVE ( 'NONE', #275, #179, #200, .T. ) ;
#52 = DIRECTION ( 'NONE',  ( -3.491481338843133355E-15, 1.224646799147353207E-16, -1.000000000000000000 ) ) ;
#53 = EDGE_CURVE ( 'NONE', #65, #245, #176, .T. ) ;
#54 = PLANE ( 'NONE',  #40 ) ;
#55 = CARTESIAN_POINT ( 'NONE',  ( 2.793185071074506684E-13, -9.797174393178826052E-15, 80.00000000000000000 ) ) ;
#56 = CONICAL_SURFACE ( 'NONE', #228, 4.799999999999998046, 0.7853981633974511656 ) ;
#57 = APPROVAL_PERSON_ORGANIZATION ( #223, #139, #241 ) ;
#58 = CALENDAR_DATE ( 2023, 31, 3 ) ;
#59 = DIRECTION ( 'NONE',  ( 0.000000000000000000, 1.000000000000000000, 0.000000000000000000 ) ) ;
#60 = CARTESIAN_POINT ( 'NONE',  ( 1.047444401652940007E-13, -3.673940397442059178E-15, 30.00000000000000000 ) ) ;
#61 = APPROVAL_DATE_TIME ( #36, #189 ) ;
#62 = CARTESIAN_POINT ( 'NONE',  ( 5.310700816213537335E-14, -5.999999999999995559, 30.00000000000000000 ) ) ;
#63 = CALENDAR_DATE ( 2023, 31, 3 ) ;
#64 = ORIENTED_EDGE ( 'NONE', *, *, #53, .T. ) ;
#65 = VERTEX_POINT ( 'NONE', #21 ) ;
#66 = APPROVAL_ROLE ( '' ) ;
#67 = CC_DESIGN_SECURITY_CLASSIFICATION ( #73, ( #42 ) ) ;
#68 = ORIENTED_EDGE ( 'NONE', *, *, #91, .T. ) ;
#69 = COORDINATED_UNIVERSAL_TIME_OFFSET ( 1, 0, .AHEAD. ) ;
#70 = CC_DESIGN_PERSON_AND_ORGANIZATION_ASSIGNMENT ( #22, #180, ( #75 ) ) ;
#71 = DIRECTION ( 'NONE',  ( -2.382254525458708792E-15, -0.7071067811865493491, -0.7071067811865455743 ) ) ;
#72 = CIRCLE ( 'NONE', #234, 5.999999999999987566 ) ;
#73 = SECURITY_CLASSIFICATION ( '', '', #104 ) ;
#74 = MECHANICAL_CONTEXT ( 'NONE', #271, 'mechanical' ) ;
#75 = PRODUCT ( '372756', '372756', '', ( #74 ) ) ;
#76 = VECTOR ( 'NONE', #240, 1000.000000000000000 ) ;
#77 = DIRECTION ( 'NONE',  ( 3.491481338843133355E-15, -1.224646799147353207E-16, 1.000000000000000000 ) ) ;
#78 = CYLINDRICAL_SURFACE ( 'NONE', #217, 5.999999999999989342 ) ;
#79 = CARTESIAN_POINT ( 'NONE',  ( 2.751287295008389336E-13, -9.650216777281144190E-15, 78.80000000000001137 ) ) ;
#80 = CARTESIAN_POINT ( 'NONE',  ( 0.000000000000000000, 0.000000000000000000, 0.000000000000000000 ) ) ;
#81 = AXIS2_PLACEMENT_3D ( 'NONE', #136, #204, #46 ) ;
#82 = ORIENTED_EDGE ( 'NONE', *, *, #226, .F. ) ;
#83 = FACE_OUTER_BOUND ( 'NONE', #129, .T. ) ;
#84 = APPLICATION_PROTOCOL_DEFINITION ( 'international standard', 'config_control_design', 1994, #287 ) ;
#85 = MANIFOLD_SOLID_BREP ( 'Corps-Déplacer/Copier1[1]', #175 ) ;
#86 = CARTESIAN_POINT ( 'NONE',  ( 2.793185071074506684E-13, 4.799999999999988276, 80.00000000000000000 ) ) ;
#87 = ORIENTED_EDGE ( 'NONE', *, *, #164, .F. ) ;
#88 = MANIFOLD_SOLID_BREP ( 'Corps-Déplacer/Copier1[2]', #101 ) ;
#89 = DIRECTION ( 'NONE',  ( 0.000000000000000000, 1.000000000000000000, 0.000000000000000000 ) ) ;
#90 = EDGE_LOOP ( 'NONE', ( #26, #109, #133, #303 ) ) ;
#91 = EDGE_CURVE ( 'NONE', #43, #65, #159, .T. ) ;
#92 = ORIENTED_EDGE ( 'NONE', *, *, #1, .F. ) ;
#93 = DIRECTION ( 'NONE',  ( -4.275831445896958607E-31, -1.000000000000000000, -1.224646799147353207E-16 ) ) ;
#94 = AXIS2_PLACEMENT_3D ( 'NONE', #128, #239, #163 ) ;
#95 = DIRECTION ( 'NONE',  ( -3.491481338843133355E-15, 1.224646799147353207E-16, -1.000000000000000000 ) ) ;
#96 = ADVANCED_BREP_SHAPE_REPRESENTATION ( '372756', ( #85, #88, #131 ), #260 ) ;
#97 = EDGE_CURVE ( 'NONE', #244, #275, #286, .T. ) ;
#98 = CIRCLE ( 'NONE', #94, 4.799999999999998046 ) ;
#99 = CARTESIAN_POINT ( 'NONE',  ( -2.137923559883790471E-30, 7.498826401578055612E-32, -6.123256441611598533E-16 ) ) ;
#100 = CC_DESIGN_DATE_AND_TIME_ASSIGNMENT ( #197, #111, ( #73 ) ) ;
#101 = CLOSED_SHELL ( 'NONE', ( #138, #158, #203, #188 ) ) ;
#102 = CARTESIAN_POINT ( 'NONE',  ( 2.793185071074506684E-13, 4.799999999999988276, 80.00000000000000000 ) ) ;
#103 = CARTESIAN_POINT ( 'NONE',  ( 0.000000000000000000, 0.000000000000000000, 0.000000000000000000 ) ) ;
#104 = SECURITY_CLASSIFICATION_LEVEL ( 'unclassified' ) ;
#105 = DIRECTION ( 'NONE',  ( 3.491481338843133355E-15, -1.224646799147353207E-16, 1.000000000000000000 ) ) ;
#106 = ADVANCED_FACE ( 'NONE', ( #214 ), #208, .T. ) ;
#107 = APPROVAL_DATE_TIME ( #191, #301 ) ;
#108 = CONICAL_SURFACE ( 'NONE', #81, 4.799999999999998046, 0.7853981633974511656 ) ;
#109 = ORIENTED_EDGE ( 'NONE', *, *, #160, .T. ) ;
#110 = ORIENTED_EDGE ( 'NONE', *, *, #51, .F. ) ;
#111 = DATE_TIME_ROLE ( 'classification_date' ) ;
#112 = ORIENTED_EDGE ( 'NONE', *, *, #246, .T. ) ;
#113 = EDGE_CURVE ( 'NONE', #44, #206, #162, .T. ) ;
#114 = PRODUCT_RELATED_PRODUCT_CATEGORY ( 'detail', '', ( #75 ) ) ;
#115 = CARTESIAN_POINT ( 'NONE',  ( 1.047444401652940007E-13, -3.673940397442059178E-15, 30.00000000000000000 ) ) ;
#116 = VECTOR ( 'NONE', #28, 1000.000000000000000 ) ;
#117 = ORIENTED_EDGE ( 'NONE', *, *, #145, .F. ) ;
#118 = LINE ( 'NONE', #231, #257 ) ;
#119 = CARTESIAN_POINT ( 'NONE',  ( 2.793185071074506684E-13, -9.797174393178826052E-15, 80.00000000000000000 ) ) ;
#120 = EDGE_LOOP ( 'NONE', ( #221, #68, #64, #92 ) ) ;
#121 = EDGE_CURVE ( 'NONE', #245, #283, #72, .T. ) ;
#122 = DIRECTION ( 'NONE',  ( 0.000000000000000000, 1.000000000000000000, 0.000000000000000000 ) ) ;
#123 = DIRECTION ( 'NONE',  ( 4.275831445896959482E-31, 1.000000000000000000, 1.224646799147353207E-16 ) ) ;
#124 = DIRECTION ( 'NONE',  ( -3.491481338843133355E-15, 1.224646799147353207E-16, -1.000000000000000000 ) ) ;
#125 = CIRCLE ( 'NONE', #306, 4.799999999999998046 ) ;
#126 = DATE_TIME_ROLE ( 'creation_date' ) ;
#127 = DIRECTION ( 'NONE',  ( 0.000000000000000000, 1.000000000000000000, 0.000000000000000000 ) ) ;
#128 = CARTESIAN_POINT ( 'NONE',  ( 2.793185071074506684E-13, -9.797174393178826052E-15, 80.00000000000000000 ) ) ;
#129 = EDGE_LOOP ( 'NONE', ( #41, #87 ) ) ;
#130 = CIRCLE ( 'NONE', #161, 5.999999999999991118 ) ;
#131 = AXIS2_PLACEMENT_3D ( 'NONE', #255, #49, #155 ) ;
#132 = PLANE ( 'NONE',  #305 ) ;
#133 = ORIENTED_EDGE ( 'NONE', *, *, #121, .F. ) ;
#134 = PERSON_AND_ORGANIZATION ( #290, #296 ) ;
#135 = ORIENTED_EDGE ( 'NONE', *, *, #8, .F. ) ;
#136 = CARTESIAN_POINT ( 'NONE',  ( 2.793185071074506684E-13, -9.797174393178826052E-15, 80.00000000000000000 ) ) ;
#137 = CARTESIAN_POINT ( 'NONE',  ( 4.275753076543793505E-31, 5.999999999999987566, 1.224624353272506412E-16 ) ) ;
#138 = ADVANCED_FACE ( 'NONE', ( #288 ), #78, .T. ) ;
#139 = APPROVAL ( #265, 'UNSPECIFIED' ) ;
#140 = AXIS2_PLACEMENT_3D ( 'NONE', #302, #38, #195 ) ;
#141 = DIRECTION ( 'NONE',  ( -3.491481338843133355E-15, 1.224646799147353207E-16, -1.000000000000000000 ) ) ;
#142 = CARTESIAN_POINT ( 'NONE',  ( 1.047444401652940007E-13, 5.999999999999987566, 30.00000000000000000 ) ) ;
#143 = DIRECTION ( 'NONE',  ( -3.491481338843133355E-15, 1.224646799147353207E-16, -1.000000000000000000 ) ) ;
#144 = DIRECTION ( 'NONE',  ( -3.491481338843133355E-15, 1.224646799147353207E-16, -1.000000000000000000 ) ) ;
#145 = EDGE_CURVE ( 'NONE', #206, #244, #183, .T. ) ;
#146 = LINE ( 'NONE', #37, #232 ) ;
#147 = DIRECTION ( 'NONE',  ( -3.491481338843133355E-15, 1.224646799147353207E-16, -1.000000000000000000 ) ) ;
#148 = DATE_AND_TIME ( #220, #168 ) ;
#149 = FACE_OUTER_BOUND ( 'NONE', #294, .T. ) ;
#150 = APPROVAL_DATE_TIME ( #148, #139 ) ;
#151 = DIRECTION ( 'NONE',  ( -3.491481338843133355E-15, 1.224646799147353207E-16, -1.000000000000000000 ) ) ;
#152 = PERSON_AND_ORGANIZATION_ROLE ( 'creator' ) ;
#153 = CARTESIAN_POINT ( 'NONE',  ( 0.000000000000000000, 0.000000000000000000, 0.000000000000000000 ) ) ;
#154 = PERSON_AND_ORGANIZATION ( #290, #296 ) ;
#155 = DIRECTION ( 'NONE',  ( 1.000000000000000000, 0.000000000000000000, 0.000000000000000000 ) ) ;
#156 = CIRCLE ( 'NONE', #233, 5.999999999999991118 ) ;
#157 = DIRECTION ( 'NONE',  ( -3.491481338843133355E-15, 1.224646799147353207E-16, -1.000000000000000000 ) ) ;
#158 = ADVANCED_FACE ( 'NONE', ( #185 ), #7, .F. ) ;
#159 = CIRCLE ( 'NONE', #313, 5.999999999999991118 ) ;
#160 = EDGE_CURVE ( 'NONE', #43, #283, #261, .T. ) ;
#161 = AXIS2_PLACEMENT_3D ( 'NONE', #267, #143, #262 ) ;
#162 = LINE ( 'NONE', #102, #116 ) ;
#163 = DIRECTION ( 'NONE',  ( 0.000000000000000000, 1.000000000000000000, 0.000000000000000000 ) ) ;
#164 = EDGE_CURVE ( 'NONE', #219, #44, #98, .T. ) ;
#165 = FACE_OUTER_BOUND ( 'NONE', #178, .T. ) ;
#166 = COORDINATED_UNIVERSAL_TIME_OFFSET ( 1, 0, .AHEAD. ) ;
#167 = AXIS2_PLACEMENT_3D ( 'NONE', #153, #151, #18 ) ;
#168 = LOCAL_TIME ( 9, 9, 10.00000000000000000, #20 ) ;
#169 = CARTESIAN_POINT ( 'NONE',  ( 7.347880794884087196E-16, -5.999999999999994671, -7.347880794884138472E-16 ) ) ;
#170 = DIRECTION ( 'NONE',  ( -3.491481338843133355E-15, 1.224646799147353207E-16, -1.000000000000000000 ) ) ;
#171 = CARTESIAN_POINT ( 'NONE',  ( 2.793185071074506684E-13, 3.599423478388442932E-32, 80.00000000000000000 ) ) ;
#172 = PERSON_AND_ORGANIZATION_ROLE ( 'creator' ) ;
#173 = EDGE_LOOP ( 'NONE', ( #19, #270 ) ) ;
#174 = ORIENTED_EDGE ( 'NONE', *, *, #310, .T. ) ;
#175 = CLOSED_SHELL ( 'NONE', ( #210, #47, #292, #106, #258, #31 ) ) ;
#176 = LINE ( 'NONE', #243, #25 ) ;
#177 = SHAPE_DEFINITION_REPRESENTATION ( #207, #96 ) ;
#178 = EDGE_LOOP ( 'NONE', ( #218, #268 ) ) ;
#179 = VERTEX_POINT ( 'NONE', #142 ) ;
#180 = PERSON_AND_ORGANIZATION_ROLE ( 'design_owner' ) ;
#181 = CC_DESIGN_APPROVAL ( #139, ( #42 ) ) ;
#182 = DIRECTION ( 'NONE',  ( 0.000000000000000000, 1.000000000000000000, 0.000000000000000000 ) ) ;
#183 = CIRCLE ( 'NONE', #259, 5.999999999999997335 ) ;
#184 = EDGE_CURVE ( 'NONE', #179, #275, #130, .T. ) ;
#185 = FACE_OUTER_BOUND ( 'NONE', #250, .T. ) ;
#186 = AXIS2_PLACEMENT_3D ( 'NONE', #103, #190, #263 ) ;
#187 = DIRECTION ( 'NONE',  ( 4.275831445896958607E-31, 1.000000000000000000, 1.224646799147353454E-16 ) ) ;
#188 = ADVANCED_FACE ( 'NONE', ( #165 ), #54, .T. ) ;
#189 = APPROVAL ( #300, 'UNSPECIFIED' ) ;
#190 = DIRECTION ( 'NONE',  ( -3.491481338843133355E-15, 1.224646799147353207E-16, -1.000000000000000000 ) ) ;
#191 = DATE_AND_TIME ( #273, #3 ) ;
#192 = CARTESIAN_POINT ( 'NONE',  ( 2.751287295008389336E-13, 5.999999999999987566, 78.80000000000001137 ) ) ;
#193 = DATE_AND_TIME ( #63, #194 ) ;
#194 = LOCAL_TIME ( 9, 9, 10.00000000000000000, #298 ) ;
#195 = DIRECTION ( 'NONE',  ( 0.000000000000000000, 1.000000000000000000, 0.000000000000000000 ) ) ;
#196 = EDGE_LOOP ( 'NONE', ( #174, #112, #117, #201 ) ) ;
#197 = DATE_AND_TIME ( #9, #235 ) ;
#198 = ORIENTED_EDGE ( 'NONE', *, *, #246, .F. ) ;
#199 = ORIENTED_EDGE ( 'NONE', *, *, #145, .T. ) ;
#200 = CIRCLE ( 'NONE', #252, 5.999999999999991118 ) ;
#201 = ORIENTED_EDGE ( 'NONE', *, *, #113, .F. ) ;
#202 = DIRECTION ( 'NONE',  ( -3.491481338843133355E-15, 1.224646799147353207E-16, -1.000000000000000000 ) ) ;
#203 = ADVANCED_FACE ( 'NONE', ( #30 ), #29, .T. ) ;
#204 = DIRECTION ( 'NONE',  ( -3.491481338843133355E-15, 1.224646799147353207E-16, -1.000000000000000000 ) ) ;
#205 = APPLICATION_PROTOCOL_DEFINITION ( 'international standard', 'config_control_design', 1994, #271 ) ;
#206 = VERTEX_POINT ( 'NONE', #192 ) ;
#207 = PRODUCT_DEFINITION_SHAPE ( 'NONE', 'NONE',  #211 ) ;
#208 = CYLINDRICAL_SURFACE ( 'NONE', #32, 5.999999999999994671 ) ;
#209 = DIRECTION ( 'NONE',  ( -4.275831445896958607E-31, -1.000000000000000000, -1.224646799147353207E-16 ) ) ;
#210 = ADVANCED_FACE ( 'NONE', ( #293 ), #56, .T. ) ;
#211 = PRODUCT_DEFINITION ( 'UNKNOWN', '', #42, #264 ) ;
#212 = CARTESIAN_POINT ( 'NONE',  ( -1.068961779941895236E-30, 3.749413200789027806E-32, -3.061628220805799266E-16 ) ) ;
#213 = COORDINATED_UNIVERSAL_TIME_OFFSET ( 1, 0, .AHEAD. ) ;
#214 = FACE_OUTER_BOUND ( 'NONE', #16, .T. ) ;
#215 = APPROVAL_ROLE ( '' ) ;
#216 = ORIENTED_EDGE ( 'NONE', *, *, #164, .T. ) ;
#217 = AXIS2_PLACEMENT_3D ( 'NONE', #80, #124, #123 ) ;
#218 = ORIENTED_EDGE ( 'NONE', *, *, #284, .F. ) ;
#219 = VERTEX_POINT ( 'NONE', #34 ) ;
#220 = CALENDAR_DATE ( 2023, 31, 3 ) ;
#221 = ORIENTED_EDGE ( 'NONE', *, *, #160, .F. ) ;
#222 = ORIENTED_EDGE ( 'NONE', *, *, #113, .T. ) ;
#223 = PERSON_AND_ORGANIZATION ( #290, #296 ) ;
#224 = ORIENTED_EDGE ( 'NONE', *, *, #226, .T. ) ;
#225 = ORIENTED_EDGE ( 'NONE', *, *, #97, .F. ) ;
#226 = EDGE_CURVE ( 'NONE', #206, #179, #146, .T. ) ;
#227 = DIRECTION ( 'NONE',  ( 0.000000000000000000, 1.000000000000000000, 0.000000000000000000 ) ) ;
#228 = AXIS2_PLACEMENT_3D ( 'NONE', #55, #144, #59 ) ;
#229 = LOCAL_TIME ( 9, 9, 10.00000000000000000, #166 ) ;
#230 = CARTESIAN_POINT ( 'NONE',  ( 1.047444401652940007E-13, -3.673940397442059178E-15, 30.00000000000000000 ) ) ;
#231 = CARTESIAN_POINT ( 'NONE',  ( 2.799063375710414274E-13, -4.800000000000007816, 80.00000000000000000 ) ) ;
#232 = VECTOR ( 'NONE', #157, 1000.000000000000000 ) ;
#233 = AXIS2_PLACEMENT_3D ( 'NONE', #230, #95, #182 ) ;
#234 = AXIS2_PLACEMENT_3D ( 'NONE', #99, #141, #187 ) ;
#235 = LOCAL_TIME ( 9, 9, 10.00000000000000000, #213 ) ;
#236 = DIRECTION ( 'NONE',  ( -3.491481338843133355E-15, 1.224646799147353207E-16, -1.000000000000000000 ) ) ;
#237 = CARTESIAN_POINT ( 'NONE',  ( 1.047444401652940007E-13, 4.499279347985561328E-32, 30.00000000000000000 ) ) ;
#238 = CC_DESIGN_PERSON_AND_ORGANIZATION_ASSIGNMENT ( #13, #269, ( #73 ) ) ;
#239 = DIRECTION ( 'NONE',  ( -3.491481338843133355E-15, 1.224646799147353207E-16, -1.000000000000000000 ) ) ;
#240 = DIRECTION ( 'NONE',  ( -3.491481338843133355E-15, 1.224646799147353207E-16, -1.000000000000000000 ) ) ;
#241 = APPROVAL_ROLE ( '' ) ;
#242 = CARTESIAN_POINT ( 'NONE',  ( 0.000000000000000000, 0.000000000000000000, 0.000000000000000000 ) ) ;
#243 = CARTESIAN_POINT ( 'NONE',  ( 2.565498867538170960E-30, 5.999999999999989342, 7.347880794884106917E-16 ) ) ;
#244 = VERTEX_POINT ( 'NONE', #251 ) ;
#245 = VERTEX_POINT ( 'NONE', #137 ) ;
#246 = EDGE_CURVE ( 'NONE', #219, #244, #118, .T. ) ;
#247 = DIRECTION ( 'NONE',  ( -3.491481338843133355E-15, 1.224646799147353207E-16, -1.000000000000000000 ) ) ;
#248 = CC_DESIGN_DATE_AND_TIME_ASSIGNMENT ( #193, #126, ( #211 ) ) ;
#249 = FACE_OUTER_BOUND ( 'NONE', #308, .T. ) ;
#250 = EDGE_LOOP ( 'NONE', ( #11, #45 ) ) ;
#251 = CARTESIAN_POINT ( 'NONE',  ( 1.906713729125547897E-13, -6.000000000000007105, 78.80000000000001137 ) ) ;
#252 = AXIS2_PLACEMENT_3D ( 'NONE', #60, #147, #89 ) ;
#253 = AXIS2_PLACEMENT_3D ( 'NONE', #23, #24, #93 ) ;
#254 = FACE_OUTER_BOUND ( 'NONE', #173, .T. ) ;
#255 = CARTESIAN_POINT ( 'NONE',  ( 0.000000000000000000, 0.000000000000000000, 0.000000000000000000 ) ) ;
#256 = CIRCLE ( 'NONE', #295, 5.999999999999987566 ) ;
#257 = VECTOR ( 'NONE', #71, 1000.000000000000114 ) ;
#258 = ADVANCED_FACE ( 'NONE', ( #249 ), #108, .T. ) ;
#259 = AXIS2_PLACEMENT_3D ( 'NONE', #79, #10, #122 ) ;
#260 =( GEOMETRIC_REPRESENTATION_CONTEXT ( 3 ) GLOBAL_UNCERTAINTY_ASSIGNED_CONTEXT ( ( #35 ) ) GLOBAL_UNIT_ASSIGNED_CONTEXT ( ( #309, #280, #282 ) ) REPRESENTATION_CONTEXT ( 'NONE', 'WORKASPACE' ) );
#261 = LINE ( 'NONE', #6, #12 ) ;
#262 = DIRECTION ( 'NONE',  ( 0.000000000000000000, 1.000000000000000000, 0.000000000000000000 ) ) ;
#263 = DIRECTION ( 'NONE',  ( 4.275831445896959482E-31, 1.000000000000000000, 1.224646799147353207E-16 ) ) ;
#264 = DESIGN_CONTEXT ( 'detailed design', #287, 'design' ) ;
#265 = APPROVAL_STATUS ( 'not_yet_approved' ) ;
#266 = APPROVAL_PERSON_ORGANIZATION ( #17, #301, #215 ) ;
#267 = CARTESIAN_POINT ( 'NONE',  ( 1.047444401652940007E-13, -3.673940397442059178E-15, 30.00000000000000000 ) ) ;
#268 = ORIENTED_EDGE ( 'NONE', *, *, #91, .F. ) ;
#269 = PERSON_AND_ORGANIZATION_ROLE ( 'classification_officer' ) ;
#270 = ORIENTED_EDGE ( 'NONE', *, *, #51, .T. ) ;
#271 = APPLICATION_CONTEXT ( 'configuration controlled 3d designs of mechanical parts and assemblies' ) ;
#272 = CYLINDRICAL_SURFACE ( 'NONE', #167, 5.999999999999994671 ) ;
#273 = CALENDAR_DATE ( 2023, 31, 3 ) ;
#274 = CC_DESIGN_PERSON_AND_ORGANIZATION_ASSIGNMENT ( #304, #276, ( #42 ) ) ;
#275 = VERTEX_POINT ( 'NONE', #312 ) ;
#276 = PERSON_AND_ORGANIZATION_ROLE ( 'design_supplier' ) ;
#277 = CARTESIAN_POINT ( 'NONE',  ( -2.137923559883790471E-30, 7.498826401578055612E-32, -6.123256441611598533E-16 ) ) ;
#278 = ORIENTED_EDGE ( 'NONE', *, *, #184, .F. ) ;
#279 = PLANE ( 'NONE',  #253 ) ;
#280 =( NAMED_UNIT ( * ) PLANE_ANGLE_UNIT ( ) SI_UNIT ( $, .RADIAN. ) );
#281 = AXIS2_PLACEMENT_3D ( 'NONE', #212, #77, #209 ) ;
#282 =( NAMED_UNIT ( * ) SI_UNIT ( $, .STERADIAN. ) SOLID_ANGLE_UNIT ( ) );
#283 = VERTEX_POINT ( 'NONE', #48 ) ;
#284 = EDGE_CURVE ( 'NONE', #65, #43, #156, .T. ) ;
#285 = APPROVAL_PERSON_ORGANIZATION ( #291, #189, #66 ) ;
#286 = LINE ( 'NONE', #169, #76 ) ;
#287 = APPLICATION_CONTEXT ( 'configuration controlled 3d designs of mechanical parts and assemblies' ) ;
#288 = FACE_OUTER_BOUND ( 'NONE', #90, .T. ) ;
#289 = DIRECTION ( 'NONE',  ( -4.275831445896958607E-31, -1.000000000000000000, -1.224646799147353207E-16 ) ) ;
#290 = PERSON ( 'UNSPECIFIED', 'UNSPECIFIED', 'UNSPECIFIED', ('UNSPECIFIED'), ('UNSPECIFIED'), ('UNSPECIFIED') ) ;
#291 = PERSON_AND_ORGANIZATION ( #290, #296 ) ;
#292 = ADVANCED_FACE ( 'NONE', ( #254 ), #279, .F. ) ;
#293 = FACE_OUTER_BOUND ( 'NONE', #196, .T. ) ;
#294 = EDGE_LOOP ( 'NONE', ( #199, #39, #278, #82 ) ) ;
#295 = AXIS2_PLACEMENT_3D ( 'NONE', #277, #170, #297 ) ;
#296 = ORGANIZATION ( 'UNSPECIFIED', 'UNSPECIFIED', '' ) ;
#297 = DIRECTION ( 'NONE',  ( 4.275831445896958607E-31, 1.000000000000000000, 1.224646799147353454E-16 ) ) ;
#298 = COORDINATED_UNIVERSAL_TIME_OFFSET ( 1, 0, .AHEAD. ) ;
#299 = DIRECTION ( 'NONE',  ( -3.491481338843133355E-15, 1.224646799147353207E-16, -1.000000000000000000 ) ) ;
#300 = APPROVAL_STATUS ( 'not_yet_approved' ) ;
#301 = APPROVAL ( #33, 'UNSPECIFIED' ) ;
#302 = CARTESIAN_POINT ( 'NONE',  ( 2.751287295008389336E-13, -9.650216777281144190E-15, 78.80000000000001137 ) ) ;
#303 = ORIENTED_EDGE ( 'NONE', *, *, #53, .F. ) ;
#304 = PERSON_AND_ORGANIZATION ( #290, #296 ) ;
#305 = AXIS2_PLACEMENT_3D ( 'NONE', #171, #299, #15 ) ;
#306 = AXIS2_PLACEMENT_3D ( 'NONE', #119, #202, #227 ) ;
#307 = DIRECTION ( 'NONE',  ( -3.491481338843133355E-15, 1.224646799147353207E-16, -1.000000000000000000 ) ) ;
#308 = EDGE_LOOP ( 'NONE', ( #198, #216, #222, #135 ) ) ;
#309 =( LENGTH_UNIT ( ) NAMED_UNIT ( * ) SI_UNIT ( .MILLI., .METRE. ) );
#310 = EDGE_CURVE ( 'NONE', #44, #219, #125, .T. ) ;
#311 = ORIENTED_EDGE ( 'NONE', *, *, #8, .T. ) ;
#312 = CARTESIAN_POINT ( 'NONE',  ( 1.906713729125548149E-13, -5.999999999999994671, 30.00000000000000000 ) ) ;
#313 = AXIS2_PLACEMENT_3D ( 'NONE', #115, #307, #127 ) ;
ENDSEC;
END-ISO-10303-21;
