ISO-10303-21;
HEADER;
FILE_DESCRIPTION (( 'STEP AP203' ),
    '1' );
FILE_NAME ('372755.step',
    '2023-03-31T07:09:10',
    ( '' ),
    ( '' ),
    'SwSTEP 2.0',
    'SolidWorks 2022',
    '' );
FILE_SCHEMA (( 'CONFIG_CONTROL_DESIGN' ));
ENDSEC;

DATA;
#1 = CARTESIAN_POINT ( 'NONE',  ( 6.123233995736743603E-16, -4.999999999999999112, -6.123233995736786004E-16 ) ) ;
#2 = FACE_OUTER_BOUND ( 'NONE', #101, .T. ) ;
#3 = VERTEX_POINT ( 'NONE', #14 ) ;
#4 = EDGE_CURVE ( 'NONE', #310, #99, #305, .T. ) ;
#5 = CARTESIAN_POINT ( 'NONE',  ( 7.044195017643630498E-14, -4.999999999999990230, -1.102183026962790399E-15 ) ) ;
#6 = EDGE_LOOP ( 'NONE', ( #32, #125, #56, #297 ) ) ;
#7 = VERTEX_POINT ( 'NONE', #38 ) ;
#8 = AXIS2_PLACEMENT_3D ( 'NONE', #153, #283, #298 ) ;
#9 = LINE ( 'NONE', #150, #141 ) ;
#10 = CARTESIAN_POINT ( 'NONE',  ( 4.275799752675880954E-31, 4.999999999999990230, 1.224637721848063933E-16 ) ) ;
#11 = CC_DESIGN_DATE_AND_TIME_ASSIGNMENT ( #96, #22, ( #45 ) ) ;
#12 = AXIS2_PLACEMENT_3D ( 'NONE', #138, #16, #52 ) ;
#13 = COORDINATED_UNIVERSAL_TIME_OFFSET ( 1, 0, .AHEAD. ) ;
#14 = CARTESIAN_POINT ( 'NONE',  ( 3.491481338843133355E-13, 3.999999999999991562, 100.0000000000000000 ) ) ;
#15 = EDGE_CURVE ( 'NONE', #7, #71, #226, .T. ) ;
#16 = DIRECTION ( 'NONE',  ( -3.491481338843133355E-15, 1.224646799147353207E-16, -1.000000000000000000 ) ) ;
#17 = ORIENTED_EDGE ( 'NONE', *, *, #126, .T. ) ;
#18 = APPROVAL_STATUS ( 'not_yet_approved' ) ;
#19 = CC_DESIGN_PERSON_AND_ORGANIZATION_ASSIGNMENT ( #242, #23, ( #308 ) ) ;
#20 = VECTOR ( 'NONE', #179, 1000.000000000000000 ) ;
#21 = LINE ( 'NONE', #1, #78 ) ;
#22 = DATE_TIME_ROLE ( 'classification_date' ) ;
#23 = PERSON_AND_ORGANIZATION_ROLE ( 'design_supplier' ) ;
#24 = DIRECTION ( 'NONE',  ( -3.491481338843133355E-15, 1.224646799147353207E-16, -1.000000000000000000 ) ) ;
#25 = VERTEX_POINT ( 'NONE', #10 ) ;
#26 = CALENDAR_DATE ( 2023, 31, 3 ) ;
#27 = PRODUCT ( '372755', '372755', '', ( #42 ) ) ;
#28 = DIRECTION ( 'NONE',  ( -3.491481338843133355E-15, 1.224646799147353207E-16, -1.000000000000000000 ) ) ;
#29 = EDGE_CURVE ( 'NONE', #25, #295, #231, .T. ) ;
#30 = AXIS2_PLACEMENT_3D ( 'NONE', #146, #313, #288 ) ;
#31 = CARTESIAN_POINT ( 'NONE',  ( 1.396592535537253342E-13, 3.749399456654633072E-32, 40.00000000000000000 ) ) ;
#32 = ORIENTED_EDGE ( 'NONE', *, *, #210, .T. ) ;
#33 = ORIENTED_EDGE ( 'NONE', *, *, #132, .F. ) ;
#34 = ORIENTED_EDGE ( 'NONE', *, *, #29, .F. ) ;
#35 = VECTOR ( 'NONE', #229, 999.9999999999998863 ) ;
#36 = DIRECTION ( 'NONE',  ( -3.491481338843133355E-15, 1.224646799147353207E-16, -1.000000000000000000 ) ) ;
#37 = CARTESIAN_POINT ( 'NONE',  ( 0.000000000000000000, 0.000000000000000000, 0.000000000000000000 ) ) ;
#38 = CARTESIAN_POINT ( 'NONE',  ( 7.044195017643625449E-14, -5.000000000000000888, 40.00000000000000000 ) ) ;
#39 = AXIS2_PLACEMENT_3D ( 'NONE', #166, #24, #269 ) ;
#40 = PLANE ( 'NONE',  #111 ) ;
#41 = CC_DESIGN_PERSON_AND_ORGANIZATION_ASSIGNMENT ( #243, #117, ( #308 ) ) ;
#42 = MECHANICAL_CONTEXT ( 'NONE', #199, 'mechanical' ) ;
#43 = DIRECTION ( 'NONE',  ( 3.491481338843133355E-15, -1.224646799147353207E-16, 1.000000000000000000 ) ) ;
#44 = AXIS2_PLACEMENT_3D ( 'NONE', #160, #64, #172 ) ;
#45 = SECURITY_CLASSIFICATION ( '', '', #290 ) ;
#46 = PERSON ( 'UNSPECIFIED', 'UNSPECIFIED', 'UNSPECIFIED', ('UNSPECIFIED'), ('UNSPECIFIED'), ('UNSPECIFIED') ) ;
#47 = AXIS2_PLACEMENT_3D ( 'NONE', #281, #151, #110 ) ;
#48 = ORIENTED_EDGE ( 'NONE', *, *, #170, .T. ) ;
#49 = APPROVAL_DATE_TIME ( #171, #70 ) ;
#50 = DIRECTION ( 'NONE',  ( 4.275831445896958607E-31, 1.000000000000000000, 1.224646799147353207E-16 ) ) ;
#51 = ORIENTED_EDGE ( 'NONE', *, *, #193, .F. ) ;
#52 = DIRECTION ( 'NONE',  ( 0.000000000000000000, 1.000000000000000000, 0.000000000000000000 ) ) ;
#53 = FACE_OUTER_BOUND ( 'NONE', #238, .T. ) ;
#54 = ORIENTED_EDGE ( 'NONE', *, *, #278, .T. ) ;
#55 = CIRCLE ( 'NONE', #39, 4.999999999999990230 ) ;
#56 = ORIENTED_EDGE ( 'NONE', *, *, #180, .F. ) ;
#57 = CIRCLE ( 'NONE', #12, 4.999999999999995559 ) ;
#58 = LOCAL_TIME ( 9, 9, 10.00000000000000000, #13 ) ;
#59 = DIRECTION ( 'NONE',  ( 0.000000000000000000, 1.000000000000000000, 0.000000000000000000 ) ) ;
#60 = ADVANCED_BREP_SHAPE_REPRESENTATION ( '372755', ( #217, #204, #302 ), #82 ) ;
#61 = DATE_AND_TIME ( #304, #58 ) ;
#62 = CIRCLE ( 'NONE', #30, 4.999999999999995559 ) ;
#63 = CARTESIAN_POINT ( 'NONE',  ( -8.551678738404435896E-31, 2.999525123566468084E-32, -2.449298136944345135E-16 ) ) ;
#64 = DIRECTION ( 'NONE',  ( -3.491481338843133355E-15, 1.224646799147353207E-16, -1.000000000000000000 ) ) ;
#65 = PERSON_AND_ORGANIZATION ( #46, #92 ) ;
#66 = APPROVAL_PERSON_ORGANIZATION ( #158, #189, #114 ) ;
#67 = PERSON_AND_ORGANIZATION ( #46, #92 ) ;
#68 = PERSON_AND_ORGANIZATION ( #46, #92 ) ;
#69 = DIRECTION ( 'NONE',  ( 0.000000000000000000, 1.000000000000000000, 0.000000000000000000 ) ) ;
#70 = APPROVAL ( #120, 'UNSPECIFIED' ) ;
#71 = VERTEX_POINT ( 'NONE', #257 ) ;
#72 = PERSON_AND_ORGANIZATION_ROLE ( 'classification_officer' ) ;
#73 = FACE_OUTER_BOUND ( 'NONE', #104, .T. ) ;
#74 = ORIENTED_EDGE ( 'NONE', *, *, #170, .F. ) ;
#75 = CARTESIAN_POINT ( 'NONE',  ( 3.491481338843133355E-13, 3.999999999999991562, 100.0000000000000000 ) ) ;
#76 = VERTEX_POINT ( 'NONE', #284 ) ;
#77 = EDGE_LOOP ( 'NONE', ( #149, #214 ) ) ;
#78 = VECTOR ( 'NONE', #123, 1000.000000000000000 ) ;
#79 = DIRECTION ( 'NONE',  ( 4.275831445896958607E-31, 1.000000000000000000, 1.224646799147353207E-16 ) ) ;
#80 = ORIENTED_EDGE ( 'NONE', *, *, #255, .T. ) ;
#81 = APPROVAL ( #286, 'UNSPECIFIED' ) ;
#82 =( GEOMETRIC_REPRESENTATION_CONTEXT ( 3 ) GLOBAL_UNCERTAINTY_ASSIGNED_CONTEXT ( ( #244 ) ) GLOBAL_UNIT_ASSIGNED_CONTEXT ( ( #178, #163, #306 ) ) REPRESENTATION_CONTEXT ( 'NONE', 'WORKASPACE' ) );
#83 = CARTESIAN_POINT ( 'NONE',  ( 0.000000000000000000, 0.000000000000000000, 0.000000000000000000 ) ) ;
#84 = LINE ( 'NONE', #232, #20 ) ;
#85 = DATE_TIME_ROLE ( 'creation_date' ) ;
#86 = EDGE_CURVE ( 'NONE', #71, #25, #84, .T. ) ;
#87 = DIRECTION ( 'NONE',  ( 3.491481338843133355E-15, -1.224646799147353207E-16, 1.000000000000000000 ) ) ;
#88 = AXIS2_PLACEMENT_3D ( 'NONE', #187, #219, #312 ) ;
#89 = LOCAL_TIME ( 9, 9, 10.00000000000000000, #165 ) ;
#90 = EDGE_CURVE ( 'NONE', #71, #7, #113, .T. ) ;
#91 = DATE_AND_TIME ( #26, #137 ) ;
#92 = ORGANIZATION ( 'UNSPECIFIED', 'UNSPECIFIED', '' ) ;
#93 = PLANE ( 'NONE',  #246 ) ;
#94 = ADVANCED_FACE ( 'NONE', ( #291 ), #93, .F. ) ;
#95 = CARTESIAN_POINT ( 'NONE',  ( 3.491481338843133355E-13, -1.224646799147353217E-14, 100.0000000000000000 ) ) ;
#96 = DATE_AND_TIME ( #119, #89 ) ;
#97 = LINE ( 'NONE', #282, #98 ) ;
#98 = VECTOR ( 'NONE', #174, 1000.000000000000000 ) ;
#99 = VERTEX_POINT ( 'NONE', #265 ) ;
#100 = DIRECTION ( 'NONE',  ( 4.275831445896958607E-31, 1.000000000000000000, 1.224646799147353207E-16 ) ) ;
#101 = EDGE_LOOP ( 'NONE', ( #51, #276, #54, #203 ) ) ;
#102 = ORIENTED_EDGE ( 'NONE', *, *, #162, .T. ) ;
#103 = DIRECTION ( 'NONE',  ( -4.275831445896958607E-31, -1.000000000000000000, -1.224646799147353207E-16 ) ) ;
#104 = EDGE_LOOP ( 'NONE', ( #177, #102, #122, #143 ) ) ;
#105 = PRODUCT_DEFINITION ( 'UNKNOWN', '', #308, #159 ) ;
#106 = ADVANCED_FACE ( 'NONE', ( #252 ), #115, .F. ) ;
#107 = ORIENTED_EDGE ( 'NONE', *, *, #4, .F. ) ;
#108 = ADVANCED_FACE ( 'NONE', ( #168 ), #40, .T. ) ;
#109 = APPROVAL_DATE_TIME ( #61, #189 ) ;
#110 = DIRECTION ( 'NONE',  ( 0.000000000000000000, 1.000000000000000000, 0.000000000000000000 ) ) ;
#111 = AXIS2_PLACEMENT_3D ( 'NONE', #184, #43, #223 ) ;
#112 = CYLINDRICAL_SURFACE ( 'NONE', #195, 4.999999999999999112 ) ;
#113 = CIRCLE ( 'NONE', #44, 4.999999999999995559 ) ;
#114 = APPROVAL_ROLE ( '' ) ;
#115 = PLANE ( 'NONE',  #270 ) ;
#116 = EDGE_CURVE ( 'NONE', #133, #99, #57, .T. ) ;
#117 = PERSON_AND_ORGANIZATION_ROLE ( 'creator' ) ;
#118 = ADVANCED_FACE ( 'NONE', ( #73 ), #112, .T. ) ;
#119 = CALENDAR_DATE ( 2023, 31, 3 ) ;
#120 = APPROVAL_STATUS ( 'not_yet_approved' ) ;
#121 = DIRECTION ( 'NONE',  ( -3.491481338843133355E-15, 1.224646799147353207E-16, -1.000000000000000000 ) ) ;
#122 = ORIENTED_EDGE ( 'NONE', *, *, #4, .T. ) ;
#123 = DIRECTION ( 'NONE',  ( -3.491481338843133355E-15, 1.224646799147353207E-16, -1.000000000000000000 ) ) ;
#124 = DIRECTION ( 'NONE',  ( 3.491481338843133355E-15, -1.224646799147353207E-16, 1.000000000000000000 ) ) ;
#125 = ORIENTED_EDGE ( 'NONE', *, *, #193, .T. ) ;
#126 = EDGE_CURVE ( 'NONE', #256, #133, #21, .T. ) ;
#127 = CARTESIAN_POINT ( 'NONE',  ( 0.000000000000000000, 0.000000000000000000, 0.000000000000000000 ) ) ;
#128 = EDGE_LOOP ( 'NONE', ( #194, #251, #248, #74 ) ) ;
#129 = AXIS2_PLACEMENT_3D ( 'NONE', #175, #259, #59 ) ;
#130 = CC_DESIGN_PERSON_AND_ORGANIZATION_ASSIGNMENT ( #67, #72, ( #45 ) ) ;
#131 = CARTESIAN_POINT ( 'NONE',  ( 2.432702764491712988E-13, -5.000000000000015987, 99.00000000000000000 ) ) ;
#132 = EDGE_CURVE ( 'NONE', #99, #133, #62, .T. ) ;
#133 = VERTEX_POINT ( 'NONE', #211 ) ;
#134 = DIRECTION ( 'NONE',  ( -3.491481338843133355E-15, 1.224646799147353207E-16, -1.000000000000000000 ) ) ;
#135 = CC_DESIGN_DATE_AND_TIME_ASSIGNMENT ( #206, #85, ( #105 ) ) ;
#136 = DIRECTION ( 'NONE',  ( -3.491481338843133355E-15, 1.224646799147353207E-16, -1.000000000000000000 ) ) ;
#137 = LOCAL_TIME ( 9, 9, 10.00000000000000000, #234 ) ;
#138 = CARTESIAN_POINT ( 'NONE',  ( 1.396592535537253342E-13, -4.898587196589413026E-15, 40.00000000000000000 ) ) ;
#139 = ADVANCED_FACE ( 'NONE', ( #228 ), #309, .T. ) ;
#140 = CARTESIAN_POINT ( 'NONE',  ( 0.000000000000000000, 0.000000000000000000, 0.000000000000000000 ) ) ;
#141 = VECTOR ( 'NONE', #36, 1000.000000000000000 ) ;
#142 = AXIS2_PLACEMENT_3D ( 'NONE', #275, #148, #205 ) ;
#143 = ORIENTED_EDGE ( 'NONE', *, *, #116, .F. ) ;
#144 = CARTESIAN_POINT ( 'NONE',  ( 3.456566525454702148E-13, -1.212400331155879702E-14, 99.00000000000000000 ) ) ;
#145 = ORIENTED_EDGE ( 'NONE', *, *, #90, .T. ) ;
#146 = CARTESIAN_POINT ( 'NONE',  ( 1.396592535537253342E-13, -4.898587196589413026E-15, 40.00000000000000000 ) ) ;
#147 = PLANE ( 'NONE',  #212 ) ;
#148 = DIRECTION ( 'NONE',  ( -3.491481338843133355E-15, 1.224646799147353207E-16, -1.000000000000000000 ) ) ;
#149 = ORIENTED_EDGE ( 'NONE', *, *, #210, .F. ) ;
#150 = CARTESIAN_POINT ( 'NONE',  ( 6.123233995736736700E-16, -4.999999999999992895, -6.123233995736778115E-16 ) ) ;
#151 = DIRECTION ( 'NONE',  ( -3.491481338843133355E-15, 1.224646799147353207E-16, -1.000000000000000000 ) ) ;
#152 = CC_DESIGN_PERSON_AND_ORGANIZATION_ASSIGNMENT ( #215, #188, ( #105 ) ) ;
#153 = CARTESIAN_POINT ( 'NONE',  ( 3.491481338843133355E-13, -1.224646799147353217E-14, 100.0000000000000000 ) ) ;
#154 = AXIS2_PLACEMENT_3D ( 'NONE', #144, #121, #220 ) ;
#155 = CARTESIAN_POINT ( 'NONE',  ( 2.137915722948478778E-30, 4.999999999999999112, 6.123233995736765296E-16 ) ) ;
#156 = FACE_OUTER_BOUND ( 'NONE', #173, .T. ) ;
#157 = APPROVAL_ROLE ( '' ) ;
#158 = PERSON_AND_ORGANIZATION ( #46, #92 ) ;
#159 = DESIGN_CONTEXT ( 'detailed design', #245, 'design' ) ;
#160 = CARTESIAN_POINT ( 'NONE',  ( 1.396592535537253342E-13, -4.898587196589413026E-15, 40.00000000000000000 ) ) ;
#161 = APPLICATION_PROTOCOL_DEFINITION ( 'international standard', 'config_control_design', 1994, #199 ) ;
#162 = EDGE_CURVE ( 'NONE', #256, #310, #311, .T. ) ;
#163 =( NAMED_UNIT ( * ) PLANE_ANGLE_UNIT ( ) SI_UNIT ( $, .RADIAN. ) );
#164 = CC_DESIGN_APPROVAL ( #189, ( #105 ) ) ;
#165 = COORDINATED_UNIVERSAL_TIME_OFFSET ( 1, 0, .AHEAD. ) ;
#166 = CARTESIAN_POINT ( 'NONE',  ( -1.710335747680887179E-30, 5.999050247132936168E-32, -4.898596273888690270E-16 ) ) ;
#167 = LOCAL_TIME ( 9, 9, 10.00000000000000000, #271 ) ;
#168 = FACE_OUTER_BOUND ( 'NONE', #273, .T. ) ;
#169 = EDGE_LOOP ( 'NONE', ( #279, #48 ) ) ;
#170 = EDGE_CURVE ( 'NONE', #295, #25, #55, .T. ) ;
#171 = DATE_AND_TIME ( #222, #167 ) ;
#172 = DIRECTION ( 'NONE',  ( 0.000000000000000000, 1.000000000000000000, 0.000000000000000000 ) ) ;
#173 = EDGE_LOOP ( 'NONE', ( #145, #80, #34, #225 ) ) ;
#174 = DIRECTION ( 'NONE',  ( -2.382254525458717469E-15, -0.7071067811865471286, -0.7071067811865479058 ) ) ;
#175 = CARTESIAN_POINT ( 'NONE',  ( 3.491481338843133355E-13, -1.224646799147353217E-14, 100.0000000000000000 ) ) ;
#176 = VECTOR ( 'NONE', #261, 1000.000000000000000 ) ;
#177 = ORIENTED_EDGE ( 'NONE', *, *, #126, .F. ) ;
#178 =( LENGTH_UNIT ( ) NAMED_UNIT ( * ) SI_UNIT ( .MILLI., .METRE. ) );
#179 = DIRECTION ( 'NONE',  ( -3.491481338843133355E-15, 1.224646799147353207E-16, -1.000000000000000000 ) ) ;
#180 = EDGE_CURVE ( 'NONE', #310, #256, #218, .T. ) ;
#181 = DIRECTION ( 'NONE',  ( 0.000000000000000000, 0.000000000000000000, 1.000000000000000000 ) ) ;
#182 = EDGE_CURVE ( 'NONE', #76, #3, #263, .T. ) ;
#183 = CALENDAR_DATE ( 2023, 31, 3 ) ;
#184 = CARTESIAN_POINT ( 'NONE',  ( 1.396592535537253342E-13, 3.749399456654633072E-32, 40.00000000000000000 ) ) ;
#185 = CLOSED_SHELL ( 'NONE', ( #267, #94, #209, #108 ) ) ;
#186 = AXIS2_PLACEMENT_3D ( 'NONE', #37, #134, #100 ) ;
#187 = CARTESIAN_POINT ( 'NONE',  ( 0.000000000000000000, 0.000000000000000000, 0.000000000000000000 ) ) ;
#188 = PERSON_AND_ORGANIZATION_ROLE ( 'creator' ) ;
#189 = APPROVAL ( #18, 'UNSPECIFIED' ) ;
#190 = APPROVAL_DATE_TIME ( #91, #81 ) ;
#191 = DIRECTION ( 'NONE',  ( -3.491481338843133355E-15, 1.224646799147353207E-16, -1.000000000000000000 ) ) ;
#192 = DIRECTION ( 'NONE',  ( -3.491481338843133355E-15, 1.224646799147353207E-16, -1.000000000000000000 ) ) ;
#193 = EDGE_CURVE ( 'NONE', #76, #256, #97, .T. ) ;
#194 = ORIENTED_EDGE ( 'NONE', *, *, #255, .F. ) ;
#195 = AXIS2_PLACEMENT_3D ( 'NONE', #140, #196, #247 ) ;
#196 = DIRECTION ( 'NONE',  ( -3.491481338843133355E-15, 1.224646799147353207E-16, -1.000000000000000000 ) ) ;
#197 = ORIENTED_EDGE ( 'NONE', *, *, #180, .T. ) ;
#198 = LINE ( 'NONE', #75, #35 ) ;
#199 = APPLICATION_CONTEXT ( 'configuration controlled 3d designs of mechanical parts and assemblies' ) ;
#200 = ORIENTED_EDGE ( 'NONE', *, *, #15, .F. ) ;
#201 = FACE_OUTER_BOUND ( 'NONE', #128, .T. ) ;
#202 = CLOSED_SHELL ( 'NONE', ( #258, #139, #292, #118, #216, #106 ) ) ;
#203 = ORIENTED_EDGE ( 'NONE', *, *, #162, .F. ) ;
#204 = MANIFOLD_SOLID_BREP ( 'Corps-Déplacer/Copier1[2]', #185 ) ;
#205 = DIRECTION ( 'NONE',  ( 0.000000000000000000, 1.000000000000000000, 0.000000000000000000 ) ) ;
#206 = DATE_AND_TIME ( #183, #294 ) ;
#207 = AXIS2_PLACEMENT_3D ( 'NONE', #272, #191, #69 ) ;
#208 = CARTESIAN_POINT ( 'NONE',  ( -1.710335747680887179E-30, 5.999050247132936168E-32, -4.898596273888690270E-16 ) ) ;
#209 = ADVANCED_FACE ( 'NONE', ( #201 ), #280, .T. ) ;
#210 = EDGE_CURVE ( 'NONE', #3, #76, #299, .T. ) ;
#211 = CARTESIAN_POINT ( 'NONE',  ( 2.432702764491713998E-13, -5.000000000000000888, 40.00000000000000000 ) ) ;
#212 = AXIS2_PLACEMENT_3D ( 'NONE', #31, #124, #103 ) ;
#213 = CC_DESIGN_APPROVAL ( #81, ( #308 ) ) ;
#214 = ORIENTED_EDGE ( 'NONE', *, *, #182, .F. ) ;
#215 = PERSON_AND_ORGANIZATION ( #46, #92 ) ;
#216 = ADVANCED_FACE ( 'NONE', ( #2 ), #307, .T. ) ;
#217 = MANIFOLD_SOLID_BREP ( 'Corps-Déplacer/Copier1[1]', #202 ) ;
#218 = CIRCLE ( 'NONE', #154, 5.000000000000003553 ) ;
#219 = DIRECTION ( 'NONE',  ( -3.491481338843133355E-15, 1.224646799147353207E-16, -1.000000000000000000 ) ) ;
#220 = DIRECTION ( 'NONE',  ( 0.000000000000000000, 1.000000000000000000, 0.000000000000000000 ) ) ;
#221 = ORIENTED_EDGE ( 'NONE', *, *, #90, .F. ) ;
#222 = CALENDAR_DATE ( 2023, 31, 3 ) ;
#223 = DIRECTION ( 'NONE',  ( -4.275831445896958607E-31, -1.000000000000000000, -1.224646799147353207E-16 ) ) ;
#224 = PRODUCT_RELATED_PRODUCT_CATEGORY ( 'detail', '', ( #27 ) ) ;
#225 = ORIENTED_EDGE ( 'NONE', *, *, #86, .F. ) ;
#226 = CIRCLE ( 'NONE', #47, 4.999999999999995559 ) ;
#227 = CC_DESIGN_SECURITY_CLASSIFICATION ( #45, ( #308 ) ) ;
#228 = FACE_OUTER_BOUND ( 'NONE', #230, .T. ) ;
#229 = DIRECTION ( 'NONE',  ( -2.468850131082266527E-15, 0.7071067811865473507, -0.7071067811865477948 ) ) ;
#230 = EDGE_LOOP ( 'NONE', ( #197, #17, #33, #107 ) ) ;
#231 = CIRCLE ( 'NONE', #293, 4.999999999999990230 ) ;
#232 = CARTESIAN_POINT ( 'NONE',  ( 2.137915722948476326E-30, 4.999999999999992895, 6.123233995736757408E-16 ) ) ;
#233 = FACE_OUTER_BOUND ( 'NONE', #6, .T. ) ;
#234 = COORDINATED_UNIVERSAL_TIME_OFFSET ( 1, 0, .AHEAD. ) ;
#235 = DIRECTION ( 'NONE',  ( 4.275831445896958607E-31, 1.000000000000000000, 1.224646799147353207E-16 ) ) ;
#236 = CC_DESIGN_APPROVAL ( #70, ( #45 ) ) ;
#237 = PERSON_AND_ORGANIZATION_ROLE ( 'design_owner' ) ;
#238 = EDGE_LOOP ( 'NONE', ( #264, #300 ) ) ;
#239 = APPLICATION_PROTOCOL_DEFINITION ( 'international standard', 'config_control_design', 1994, #245 ) ;
#240 = CC_DESIGN_PERSON_AND_ORGANIZATION_ASSIGNMENT ( #285, #237, ( #27 ) ) ;
#241 = AXIS2_PLACEMENT_3D ( 'NONE', #127, #301, #79 ) ;
#242 = PERSON_AND_ORGANIZATION ( #46, #92 ) ;
#243 = PERSON_AND_ORGANIZATION ( #46, #92 ) ;
#244 = UNCERTAINTY_MEASURE_WITH_UNIT (LENGTH_MEASURE( 1.000000000000000082E-05 ), #178, 'distance_accuracy_value', 'NONE');
#245 = APPLICATION_CONTEXT ( 'configuration controlled 3d designs of mechanical parts and assemblies' ) ;
#246 = AXIS2_PLACEMENT_3D ( 'NONE', #63, #87, #266 ) ;
#247 = DIRECTION ( 'NONE',  ( 4.275831445896958607E-31, 1.000000000000000000, 1.224646799147353207E-16 ) ) ;
#248 = ORIENTED_EDGE ( 'NONE', *, *, #86, .T. ) ;
#249 = SHAPE_DEFINITION_REPRESENTATION ( #296, #60 ) ;
#250 = DIRECTION ( 'NONE',  ( 0.000000000000000000, 1.000000000000000000, 0.000000000000000000 ) ) ;
#251 = ORIENTED_EDGE ( 'NONE', *, *, #15, .T. ) ;
#252 = FACE_OUTER_BOUND ( 'NONE', #77, .T. ) ;
#253 = AXIS2_PLACEMENT_3D ( 'NONE', #95, #192, #250 ) ;
#254 = APPROVAL_PERSON_ORGANIZATION ( #65, #81, #157 ) ;
#255 = EDGE_CURVE ( 'NONE', #7, #295, #9, .T. ) ;
#256 = VERTEX_POINT ( 'NONE', #131 ) ;
#257 = CARTESIAN_POINT ( 'NONE',  ( 1.396592535537253342E-13, 4.999999999999990230, 40.00000000000000000 ) ) ;
#258 = ADVANCED_FACE ( 'NONE', ( #233 ), #287, .T. ) ;
#259 = DIRECTION ( 'NONE',  ( -3.491481338843133355E-15, 1.224646799147353207E-16, -1.000000000000000000 ) ) ;
#260 = CYLINDRICAL_SURFACE ( 'NONE', #186, 4.999999999999992895 ) ;
#261 = DIRECTION ( 'NONE',  ( -3.491481338843133355E-15, 1.224646799147353207E-16, -1.000000000000000000 ) ) ;
#262 = DIRECTION ( 'NONE',  ( 1.000000000000000000, 0.000000000000000000, 0.000000000000000000 ) ) ;
#263 = CIRCLE ( 'NONE', #253, 4.000000000000003553 ) ;
#264 = ORIENTED_EDGE ( 'NONE', *, *, #132, .T. ) ;
#265 = CARTESIAN_POINT ( 'NONE',  ( 1.396592535537253342E-13, 4.999999999999990230, 40.00000000000000000 ) ) ;
#266 = DIRECTION ( 'NONE',  ( -4.275831445896958607E-31, -1.000000000000000000, -1.224646799147353207E-16 ) ) ;
#267 = ADVANCED_FACE ( 'NONE', ( #156 ), #260, .T. ) ;
#268 = APPROVAL_ROLE ( '' ) ;
#269 = DIRECTION ( 'NONE',  ( 4.275831445896958607E-31, 1.000000000000000000, 1.224646799147353207E-16 ) ) ;
#270 = AXIS2_PLACEMENT_3D ( 'NONE', #274, #28, #50 ) ;
#271 = COORDINATED_UNIVERSAL_TIME_OFFSET ( 1, 0, .AHEAD. ) ;
#272 = CARTESIAN_POINT ( 'NONE',  ( 3.456566525454702148E-13, -1.212400331155879702E-14, 99.00000000000000000 ) ) ;
#273 = EDGE_LOOP ( 'NONE', ( #221, #200 ) ) ;
#274 = CARTESIAN_POINT ( 'NONE',  ( 3.491481338843133355E-13, 2.999519565323699889E-32, 100.0000000000000000 ) ) ;
#275 = CARTESIAN_POINT ( 'NONE',  ( 3.491481338843133355E-13, -1.224646799147353217E-14, 100.0000000000000000 ) ) ;
#276 = ORIENTED_EDGE ( 'NONE', *, *, #182, .T. ) ;
#277 = CARTESIAN_POINT ( 'NONE',  ( 3.456566525454702148E-13, 4.999999999999991118, 99.00000000000000000 ) ) ;
#278 = EDGE_CURVE ( 'NONE', #3, #310, #198, .T. ) ;
#279 = ORIENTED_EDGE ( 'NONE', *, *, #29, .T. ) ;
#280 = CYLINDRICAL_SURFACE ( 'NONE', #241, 4.999999999999992895 ) ;
#281 = CARTESIAN_POINT ( 'NONE',  ( 1.396592535537253342E-13, -4.898587196589413026E-15, 40.00000000000000000 ) ) ;
#282 = CARTESIAN_POINT ( 'NONE',  ( 3.496379926039722761E-13, -4.000000000000015987, 100.0000000000000000 ) ) ;
#283 = DIRECTION ( 'NONE',  ( -3.491481338843133355E-15, 1.224646799147353207E-16, -1.000000000000000000 ) ) ;
#284 = CARTESIAN_POINT ( 'NONE',  ( 3.479534842745080959E-13, -4.000000000000015987, 100.0000000000000000 ) ) ;
#285 = PERSON_AND_ORGANIZATION ( #46, #92 ) ;
#286 = APPROVAL_STATUS ( 'not_yet_approved' ) ;
#287 = CONICAL_SURFACE ( 'NONE', #142, 4.000000000000003553, 0.7853981633974479459 ) ;
#288 = DIRECTION ( 'NONE',  ( 0.000000000000000000, 1.000000000000000000, 0.000000000000000000 ) ) ;
#289 = COORDINATED_UNIVERSAL_TIME_OFFSET ( 1, 0, .AHEAD. ) ;
#290 = SECURITY_CLASSIFICATION_LEVEL ( 'unclassified' ) ;
#291 = FACE_OUTER_BOUND ( 'NONE', #169, .T. ) ;
#292 = ADVANCED_FACE ( 'NONE', ( #53 ), #147, .F. ) ;
#293 = AXIS2_PLACEMENT_3D ( 'NONE', #208, #136, #235 ) ;
#294 = LOCAL_TIME ( 9, 9, 10.00000000000000000, #289 ) ;
#295 = VERTEX_POINT ( 'NONE', #5 ) ;
#296 = PRODUCT_DEFINITION_SHAPE ( 'NONE', 'NONE',  #105 ) ;
#297 = ORIENTED_EDGE ( 'NONE', *, *, #278, .F. ) ;
#298 = DIRECTION ( 'NONE',  ( 0.000000000000000000, 1.000000000000000000, 0.000000000000000000 ) ) ;
#299 = CIRCLE ( 'NONE', #8, 4.000000000000003553 ) ;
#300 = ORIENTED_EDGE ( 'NONE', *, *, #116, .T. ) ;
#301 = DIRECTION ( 'NONE',  ( -3.491481338843133355E-15, 1.224646799147353207E-16, -1.000000000000000000 ) ) ;
#302 = AXIS2_PLACEMENT_3D ( 'NONE', #83, #181, #262 ) ;
#303 = APPROVAL_PERSON_ORGANIZATION ( #68, #70, #268 ) ;
#304 = CALENDAR_DATE ( 2023, 31, 3 ) ;
#305 = LINE ( 'NONE', #155, #176 ) ;
#306 =( NAMED_UNIT ( * ) SI_UNIT ( $, .STERADIAN. ) SOLID_ANGLE_UNIT ( ) );
#307 = CONICAL_SURFACE ( 'NONE', #129, 4.000000000000003553, 0.7853981633974479459 ) ;
#308 = PRODUCT_DEFINITION_FORMATION_WITH_SPECIFIED_SOURCE ( 'ANY', '', #27, .NOT_KNOWN. ) ;
#309 = CYLINDRICAL_SURFACE ( 'NONE', #88, 4.999999999999999112 ) ;
#310 = VERTEX_POINT ( 'NONE', #277 ) ;
#311 = CIRCLE ( 'NONE', #207, 5.000000000000003553 ) ;
#312 = DIRECTION ( 'NONE',  ( 4.275831445896958607E-31, 1.000000000000000000, 1.224646799147353207E-16 ) ) ;
#313 = DIRECTION ( 'NONE',  ( -3.491481338843133355E-15, 1.224646799147353207E-16, -1.000000000000000000 ) ) ;
ENDSEC;
END-ISO-10303-21;
