ISO-10303-21;
HEADER;
FILE_DESCRIPTION (( 'STEP AP203' ),
    '1' );
FILE_NAME ('372754.step',
    '2023-03-31T07:09:09',
    ( '' ),
    ( '' ),
    'SwSTEP 2.0',
    'SolidWorks 2022',
    '' );
FILE_SCHEMA (( 'CONFIG_CONTROL_DESIGN' ));
ENDSEC;

DATA;
#1 = CARTESIAN_POINT ( 'NONE',  ( 2.583696190743917926E-13, -9.062386313690412007E-15, 73.99999999999998579 ) ) ;
#2 = CALENDAR_DATE ( 2023, 31, 3 ) ;
#3 = ORIENTED_EDGE ( 'NONE', *, *, #114, .T. ) ;
#4 = EDGE_CURVE ( 'NONE', #241, #273, #275, .T. ) ;
#5 = ORIENTED_EDGE ( 'NONE', *, *, #258, .T. ) ;
#6 =( NAMED_UNIT ( * ) PLANE_ANGLE_UNIT ( ) SI_UNIT ( $, .RADIAN. ) );
#7 = CARTESIAN_POINT ( 'NONE',  ( 2.618611004132350143E-13, 3.999999999999993339, 75.00000000000000000 ) ) ;
#8 = CARTESIAN_POINT ( 'NONE',  ( 2.583696190743917926E-13, -9.062386313690412007E-15, 73.99999999999998579 ) ) ;
#9 = CARTESIAN_POINT ( 'NONE',  ( 2.618611004132350143E-13, 2.999519565323702626E-32, 75.00000000000000000 ) ) ;
#10 = CLOSED_SHELL ( 'NONE', ( #104, #283, #128, #116, #172, #124 ) ) ;
#11 = AXIS2_PLACEMENT_3D ( 'NONE', #44, #226, #51 ) ;
#12 = CALENDAR_DATE ( 2023, 31, 3 ) ;
#13 = DIRECTION ( 'NONE',  ( -3.491481338843133355E-15, 1.224646799147353207E-16, -1.000000000000000000 ) ) ;
#14 = EDGE_CURVE ( 'NONE', #139, #163, #69, .T. ) ;
#15 = SECURITY_CLASSIFICATION_LEVEL ( 'unclassified' ) ;
#16 = LINE ( 'NONE', #159, #260 ) ;
#17 = ORIENTED_EDGE ( 'NONE', *, *, #255, .F. ) ;
#18 = CC_DESIGN_PERSON_AND_ORGANIZATION_ASSIGNMENT ( #204, #231, ( #101 ) ) ;
#19 = AXIS2_PLACEMENT_3D ( 'NONE', #1, #65, #274 ) ;
#20 = DIRECTION ( 'NONE',  ( 0.000000000000000000, 1.000000000000000000, 0.000000000000000000 ) ) ;
#21 = ORIENTED_EDGE ( 'NONE', *, *, #181, .F. ) ;
#22 = ORIENTED_EDGE ( 'NONE', *, *, #181, .T. ) ;
#23 = VECTOR ( 'NONE', #301, 999.9999999999998863 ) ;
#24 = AXIS2_PLACEMENT_3D ( 'NONE', #305, #263, #287 ) ;
#25 = DIRECTION ( 'NONE',  ( -3.491481338843133355E-15, 1.224646799147353207E-16, -1.000000000000000000 ) ) ;
#26 = PLANE ( 'NONE',  #83 ) ;
#27 = DIRECTION ( 'NONE',  ( -3.491481338843133355E-15, 1.224646799147353207E-16, -1.000000000000000000 ) ) ;
#28 = EDGE_CURVE ( 'NONE', #66, #262, #59, .T. ) ;
#29 = AXIS2_PLACEMENT_3D ( 'NONE', #92, #201, #249 ) ;
#30 = APPLICATION_PROTOCOL_DEFINITION ( 'international standard', 'config_control_design', 1994, #285 ) ;
#31 = EDGE_LOOP ( 'NONE', ( #3, #310, #78, #245 ) ) ;
#32 =( NAMED_UNIT ( * ) SI_UNIT ( $, .STERADIAN. ) SOLID_ANGLE_UNIT ( ) );
#33 = CARTESIAN_POINT ( 'NONE',  ( 1.047444401652940007E-13, 3.749399456654635261E-32, 30.00000000000000000 ) ) ;
#34 = FACE_OUTER_BOUND ( 'NONE', #191, .T. ) ;
#35 = SECURITY_CLASSIFICATION ( '', '', #15 ) ;
#36 = COORDINATED_UNIVERSAL_TIME_OFFSET ( 1, 0, .AHEAD. ) ;
#37 = DIRECTION ( 'NONE',  ( -3.491481338843133355E-15, 1.224646799147353207E-16, -1.000000000000000000 ) ) ;
#38 = PERSON_AND_ORGANIZATION ( #113, #157 ) ;
#39 = AXIS2_PLACEMENT_3D ( 'NONE', #298, #252, #71 ) ;
#40 = CYLINDRICAL_SURFACE ( 'NONE', #210, 4.999999999999998224 ) ;
#41 = VERTEX_POINT ( 'NONE', #123 ) ;
#42 = CC_DESIGN_PERSON_AND_ORGANIZATION_ASSIGNMENT ( #182, #264, ( #176 ) ) ;
#43 = COORDINATED_UNIVERSAL_TIME_OFFSET ( 1, 0, .AHEAD. ) ;
#44 = CARTESIAN_POINT ( 'NONE',  ( -1.710332297431663329E-30, 5.999038145287737349E-32, -4.898586391982162561E-16 ) ) ;
#45 = COORDINATED_UNIVERSAL_TIME_OFFSET ( 1, 0, .AHEAD. ) ;
#46 = APPROVAL_PERSON_ORGANIZATION ( #160, #84, #269 ) ;
#47 = ORIENTED_EDGE ( 'NONE', *, *, #14, .F. ) ;
#48 = LOCAL_TIME ( 9, 9, 9.000000000000000000, #130 ) ;
#49 = AXIS2_PLACEMENT_3D ( 'NONE', #289, #80, #132 ) ;
#50 = ORIENTED_EDGE ( 'NONE', *, *, #161, .F. ) ;
#51 = DIRECTION ( 'NONE',  ( 4.275831445896958607E-31, 1.000000000000000000, 1.224646799147353207E-16 ) ) ;
#52 = DIRECTION ( 'NONE',  ( -3.491481338843133355E-15, 1.224646799147353207E-16, -1.000000000000000000 ) ) ;
#53 = FACE_OUTER_BOUND ( 'NONE', #165, .T. ) ;
#54 = DIRECTION ( 'NONE',  ( 4.275831445896958607E-31, 1.000000000000000000, 1.224646799147353207E-16 ) ) ;
#55 = VECTOR ( 'NONE', #52, 1000.000000000000000 ) ;
#56 = ORIENTED_EDGE ( 'NONE', *, *, #14, .T. ) ;
#57 = CIRCLE ( 'NONE', #117, 4.000000000000002665 ) ;
#58 = MECHANICAL_CONTEXT ( 'NONE', #285, 'mechanical' ) ;
#59 = CIRCLE ( 'NONE', #297, 4.999999999999990230 ) ;
#60 = CC_DESIGN_APPROVAL ( #151, ( #176 ) ) ;
#61 = CARTESIAN_POINT ( 'NONE',  ( 0.000000000000000000, 0.000000000000000000, 0.000000000000000000 ) ) ;
#62 = CARTESIAN_POINT ( 'NONE',  ( 2.618611004132350143E-13, -9.184850993605148733E-15, 75.00000000000000000 ) ) ;
#63 = DATE_TIME_ROLE ( 'creation_date' ) ;
#64 = ORIENTED_EDGE ( 'NONE', *, *, #258, .F. ) ;
#65 = DIRECTION ( 'NONE',  ( -3.491481338843133355E-15, 1.224646799147353207E-16, -1.000000000000000000 ) ) ;
#66 = VERTEX_POINT ( 'NONE', #143 ) ;
#67 = AXIS2_PLACEMENT_3D ( 'NONE', #257, #154, #129 ) ;
#68 = CC_DESIGN_PERSON_AND_ORGANIZATION_ASSIGNMENT ( #38, #239, ( #35 ) ) ;
#69 = LINE ( 'NONE', #7, #23 ) ;
#70 = DIRECTION ( 'NONE',  ( -3.491481338843133355E-15, 1.224646799147353207E-16, -1.000000000000000000 ) ) ;
#71 = DIRECTION ( 'NONE',  ( -4.275831445896958607E-31, -1.000000000000000000, -1.224646799147353207E-16 ) ) ;
#72 = DIRECTION ( 'NONE',  ( 0.000000000000000000, 0.000000000000000000, 1.000000000000000000 ) ) ;
#73 = DIRECTION ( 'NONE',  ( -3.491481338843133355E-15, 1.224646799147353207E-16, -1.000000000000000000 ) ) ;
#74 = EDGE_LOOP ( 'NONE', ( #195, #299 ) ) ;
#75 = PLANE ( 'NONE',  #49 ) ;
#76 = CC_DESIGN_DATE_AND_TIME_ASSIGNMENT ( #111, #158, ( #35 ) ) ;
#77 = CC_DESIGN_SECURITY_CLASSIFICATION ( #35, ( #176 ) ) ;
#78 = ORIENTED_EDGE ( 'NONE', *, *, #28, .F. ) ;
#79 = SHAPE_DEFINITION_REPRESENTATION ( #166, #267 ) ;
#80 = DIRECTION ( 'NONE',  ( 3.491481338843133355E-15, -1.224646799147353207E-16, 1.000000000000000000 ) ) ;
#81 = EDGE_CURVE ( 'NONE', #163, #155, #125, .T. ) ;
#82 = LINE ( 'NONE', #216, #222 ) ;
#83 = AXIS2_PLACEMENT_3D ( 'NONE', #33, #278, #228 ) ;
#84 = APPROVAL ( #192, 'UNSPECIFIED' ) ;
#85 = EDGE_CURVE ( 'NONE', #155, #41, #107, .T. ) ;
#86 = ORIENTED_EDGE ( 'NONE', *, *, #161, .T. ) ;
#87 = ORIENTED_EDGE ( 'NONE', *, *, #85, .F. ) ;
#88 = DIRECTION ( 'NONE',  ( -3.491481338843133355E-15, 1.224646799147353207E-16, -1.000000000000000000 ) ) ;
#89 = ADVANCED_FACE ( 'NONE', ( #120 ), #26, .T. ) ;
#90 = MANIFOLD_SOLID_BREP ( 'Corps-Déplacer/Copier1[2]', #244 ) ;
#91 = CARTESIAN_POINT ( 'NONE',  ( 1.047444401652940007E-13, 4.999999999999991118, 30.00000000000000000 ) ) ;
#92 = CARTESIAN_POINT ( 'NONE',  ( 2.618611004132350143E-13, -9.184850993605148733E-15, 75.00000000000000000 ) ) ;
#93 = AXIS2_PLACEMENT_3D ( 'NONE', #8, #175, #259 ) ;
#94 = CARTESIAN_POINT ( 'NONE',  ( 1.821693530194164588E-13, -5.000000000000009770, 73.99999999999998579 ) ) ;
#95 = DATE_AND_TIME ( #2, #179 ) ;
#96 = EDGE_LOOP ( 'NONE', ( #221, #99, #208, #47 ) ) ;
#97 = VERTEX_POINT ( 'NONE', #94 ) ;
#98 = APPLICATION_PROTOCOL_DEFINITION ( 'international standard', 'config_control_design', 1994, #303 ) ;
#99 = ORIENTED_EDGE ( 'NONE', *, *, #212, .T. ) ;
#100 = AXIS2_PLACEMENT_3D ( 'NONE', #234, #13, #106 ) ;
#101 = PRODUCT_DEFINITION ( 'UNKNOWN', '', #176, #240 ) ;
#102 = ADVANCED_FACE ( 'NONE', ( #145 ), #202, .F. ) ;
#103 = PLANE ( 'NONE',  #290 ) ;
#104 = ADVANCED_FACE ( 'NONE', ( #174 ), #148, .T. ) ;
#105 = DATE_AND_TIME ( #184, #48 ) ;
#106 = DIRECTION ( 'NONE',  ( 0.000000000000000000, 1.000000000000000000, 0.000000000000000000 ) ) ;
#107 = CIRCLE ( 'NONE', #142, 4.999999999999994671 ) ;
#108 = DIRECTION ( 'NONE',  ( 4.275831445896959482E-31, 1.000000000000000000, 1.224646799147353207E-16 ) ) ;
#109 = ORIENTED_EDGE ( 'NONE', *, *, #28, .T. ) ;
#110 = VECTOR ( 'NONE', #253, 1000.000000000000000 ) ;
#111 = DATE_AND_TIME ( #304, #217 ) ;
#112 = CARTESIAN_POINT ( 'NONE',  ( 0.000000000000000000, 0.000000000000000000, 0.000000000000000000 ) ) ;
#113 = PERSON ( 'UNSPECIFIED', 'UNSPECIFIED', 'UNSPECIFIED', ('UNSPECIFIED'), ('UNSPECIFIED'), ('UNSPECIFIED') ) ;
#114 = EDGE_CURVE ( 'NONE', #273, #241, #276, .T. ) ;
#115 = ORIENTED_EDGE ( 'NONE', *, *, #85, .T. ) ;
#116 = ADVANCED_FACE ( 'NONE', ( #266 ), #150, .T. ) ;
#117 = AXIS2_PLACEMENT_3D ( 'NONE', #62, #27, #146 ) ;
#118 = ORIENTED_EDGE ( 'NONE', *, *, #81, .F. ) ;
#119 = DIRECTION ( 'NONE',  ( 4.275831445896958607E-31, 1.000000000000000000, 1.224646799147353207E-16 ) ) ;
#120 = FACE_OUTER_BOUND ( 'NONE', #74, .T. ) ;
#121 = CARTESIAN_POINT ( 'NONE',  ( 5.298454348222065714E-14, -4.999999999999990230, -1.102182038772076788E-15 ) ) ;
#122 = CIRCLE ( 'NONE', #93, 5.000000000000001776 ) ;
#123 = CARTESIAN_POINT ( 'NONE',  ( 1.821693530194165345E-13, -4.999999999999998224, 30.00000000000000000 ) ) ;
#124 = ADVANCED_FACE ( 'NONE', ( #34 ), #103, .F. ) ;
#125 = LINE ( 'NONE', #171, #55 ) ;
#126 = APPROVAL_PERSON_ORGANIZATION ( #292, #151, #156 ) ;
#127 = CC_DESIGN_PERSON_AND_ORGANIZATION_ASSIGNMENT ( #236, #242, ( #176 ) ) ;
#128 = ADVANCED_FACE ( 'NONE', ( #178 ), #75, .F. ) ;
#129 = DIRECTION ( 'NONE',  ( 4.275831445896959482E-31, 1.000000000000000000, 1.224646799147353207E-16 ) ) ;
#130 = COORDINATED_UNIVERSAL_TIME_OFFSET ( 1, 0, .AHEAD. ) ;
#131 = CC_DESIGN_DATE_AND_TIME_ASSIGNMENT ( #105, #63, ( #101 ) ) ;
#132 = DIRECTION ( 'NONE',  ( -4.275831445896958607E-31, -1.000000000000000000, -1.224646799147353207E-16 ) ) ;
#133 = CARTESIAN_POINT ( 'NONE',  ( 0.000000000000000000, 0.000000000000000000, 0.000000000000000000 ) ) ;
#134 = ORIENTED_EDGE ( 'NONE', *, *, #212, .F. ) ;
#135 = DATE_AND_TIME ( #12, #294 ) ;
#136 = ADVANCED_FACE ( 'NONE', ( #238 ), #251, .T. ) ;
#137 = DIRECTION ( 'NONE',  ( -3.491481338843133355E-15, 1.224646799147353207E-16, -1.000000000000000000 ) ) ;
#138 = CIRCLE ( 'NONE', #19, 5.000000000000001776 ) ;
#139 = VERTEX_POINT ( 'NONE', #197 ) ;
#140 = UNCERTAINTY_MEASURE_WITH_UNIT (LENGTH_MEASURE( 1.000000000000000082E-05 ), #280, 'distance_accuracy_value', 'NONE');
#141 = EDGE_LOOP ( 'NONE', ( #311, #5, #87, #118 ) ) ;
#142 = AXIS2_PLACEMENT_3D ( 'NONE', #250, #149, #256 ) ;
#143 = CARTESIAN_POINT ( 'NONE',  ( 4.275834255168116823E-31, 4.999999999999990230, 1.224647603754591642E-16 ) ) ;
#144 = DIRECTION ( 'NONE',  ( 4.275831445896958607E-31, 1.000000000000000000, 1.224646799147353207E-16 ) ) ;
#145 = FACE_OUTER_BOUND ( 'NONE', #309, .T. ) ;
#146 = DIRECTION ( 'NONE',  ( 0.000000000000000000, 1.000000000000000000, 0.000000000000000000 ) ) ;
#147 = APPROVAL_DATE_TIME ( #95, #194 ) ;
#148 = CONICAL_SURFACE ( 'NONE', #24, 4.000000000000002665, 0.7853981633974405074 ) ;
#149 = DIRECTION ( 'NONE',  ( -3.491481338843133355E-15, 1.224646799147353207E-16, -1.000000000000000000 ) ) ;
#150 = CYLINDRICAL_SURFACE ( 'NONE', #67, 4.999999999999998224 ) ;
#151 = APPROVAL ( #209, 'UNSPECIFIED' ) ;
#152 = CARTESIAN_POINT ( 'NONE',  ( 0.000000000000000000, 0.000000000000000000, 0.000000000000000000 ) ) ;
#153 = CIRCLE ( 'NONE', #29, 4.000000000000002665 ) ;
#154 = DIRECTION ( 'NONE',  ( -3.491481338843133355E-15, 1.224646799147353207E-16, -1.000000000000000000 ) ) ;
#155 = VERTEX_POINT ( 'NONE', #91 ) ;
#156 = APPROVAL_ROLE ( '' ) ;
#157 = ORGANIZATION ( 'UNSPECIFIED', 'UNSPECIFIED', '' ) ;
#158 = DATE_TIME_ROLE ( 'classification_date' ) ;
#159 = CARTESIAN_POINT ( 'NONE',  ( 2.137915722948475975E-30, 4.999999999999992006, 6.123233995736756422E-16 ) ) ;
#160 = PERSON_AND_ORGANIZATION ( #113, #157 ) ;
#161 = EDGE_CURVE ( 'NONE', #97, #163, #138, .T. ) ;
#162 = APPROVAL_DATE_TIME ( #271, #151 ) ;
#163 = VERTEX_POINT ( 'NONE', #170 ) ;
#164 = AXIS2_PLACEMENT_3D ( 'NONE', #177, #73, #199 ) ;
#165 = EDGE_LOOP ( 'NONE', ( #134, #183, #56, #50 ) ) ;
#166 = PRODUCT_DEFINITION_SHAPE ( 'NONE', 'NONE',  #101 ) ;
#167 = VERTEX_POINT ( 'NONE', #279 ) ;
#168 = DIRECTION ( 'NONE',  ( 0.000000000000000000, 1.000000000000000000, 0.000000000000000000 ) ) ;
#169 = LOCAL_TIME ( 9, 9, 9.000000000000000000, #306 ) ;
#170 = CARTESIAN_POINT ( 'NONE',  ( 2.583696190743917926E-13, 4.999999999999992895, 73.99999999999998579 ) ) ;
#171 = CARTESIAN_POINT ( 'NONE',  ( 2.137915722948478778E-30, 4.999999999999998224, 6.123233995736764310E-16 ) ) ;
#172 = ADVANCED_FACE ( 'NONE', ( #53 ), #233, .T. ) ;
#173 = CARTESIAN_POINT ( 'NONE',  ( 5.298454348222063189E-14, -4.999999999999998224, 30.00000000000000000 ) ) ;
#174 = FACE_OUTER_BOUND ( 'NONE', #96, .T. ) ;
#175 = DIRECTION ( 'NONE',  ( -3.491481338843133355E-15, 1.224646799147353207E-16, -1.000000000000000000 ) ) ;
#176 = PRODUCT_DEFINITION_FORMATION_WITH_SPECIFIED_SOURCE ( 'ANY', '', #203, .NOT_KNOWN. ) ;
#177 = CARTESIAN_POINT ( 'NONE',  ( 1.047444401652940007E-13, -3.673940397442059178E-15, 30.00000000000000000 ) ) ;
#178 = FACE_OUTER_BOUND ( 'NONE', #247, .T. ) ;
#179 = LOCAL_TIME ( 9, 9, 9.000000000000000000, #36 ) ;
#180 = EDGE_LOOP ( 'NONE', ( #232, #193, #225, #21 ) ) ;
#181 = EDGE_CURVE ( 'NONE', #262, #66, #300, .T. ) ;
#182 = PERSON_AND_ORGANIZATION ( #113, #157 ) ;
#183 = ORIENTED_EDGE ( 'NONE', *, *, #255, .T. ) ;
#184 = CALENDAR_DATE ( 2023, 31, 3 ) ;
#185 = ADVANCED_FACE ( 'NONE', ( #312 ), #295, .T. ) ;
#186 = DIRECTION ( 'NONE',  ( -2.382254525458736402E-15, -0.7071067811865419106, -0.7071067811865531239 ) ) ;
#187 = AXIS2_PLACEMENT_3D ( 'NONE', #277, #88, #20 ) ;
#188 = AXIS2_PLACEMENT_3D ( 'NONE', #61, #270, #119 ) ;
#189 = CALENDAR_DATE ( 2023, 31, 3 ) ;
#190 = CARTESIAN_POINT ( 'NONE',  ( 6.123233995736735714E-16, -4.999999999999992006, -6.123233995736777129E-16 ) ) ;
#191 = EDGE_LOOP ( 'NONE', ( #219, #17 ) ) ;
#192 = APPROVAL_STATUS ( 'not_yet_approved' ) ;
#193 = ORIENTED_EDGE ( 'NONE', *, *, #4, .T. ) ;
#194 = APPROVAL ( #235, 'UNSPECIFIED' ) ;
#195 = ORIENTED_EDGE ( 'NONE', *, *, #114, .F. ) ;
#196 = CARTESIAN_POINT ( 'NONE',  ( 1.047444401652940007E-13, -3.673940397442059178E-15, 30.00000000000000000 ) ) ;
#197 = CARTESIAN_POINT ( 'NONE',  ( 2.618611004132350143E-13, 3.999999999999993339, 75.00000000000000000 ) ) ;
#198 = EDGE_CURVE ( 'NONE', #139, #167, #153, .T. ) ;
#199 = DIRECTION ( 'NONE',  ( 0.000000000000000000, 1.000000000000000000, 0.000000000000000000 ) ) ;
#200 = CIRCLE ( 'NONE', #265, 4.999999999999994671 ) ;
#201 = DIRECTION ( 'NONE',  ( -3.491481338843133355E-15, 1.224646799147353207E-16, -1.000000000000000000 ) ) ;
#202 = PLANE ( 'NONE',  #39 ) ;
#203 = PRODUCT ( '372754', '372754', '', ( #58 ) ) ;
#204 = PERSON_AND_ORGANIZATION ( #113, #157 ) ;
#205 = ORIENTED_EDGE ( 'NONE', *, *, #220, .T. ) ;
#206 = PERSON_AND_ORGANIZATION_ROLE ( 'design_owner' ) ;
#207 = APPROVAL_PERSON_ORGANIZATION ( #282, #194, #302 ) ;
#208 = ORIENTED_EDGE ( 'NONE', *, *, #296, .F. ) ;
#209 = APPROVAL_STATUS ( 'not_yet_approved' ) ;
#210 = AXIS2_PLACEMENT_3D ( 'NONE', #133, #291, #108 ) ;
#211 = DIRECTION ( 'NONE',  ( 4.275831445896958607E-31, 1.000000000000000000, 1.224646799147353207E-16 ) ) ;
#212 = EDGE_CURVE ( 'NONE', #167, #97, #82, .T. ) ;
#213 = APPROVAL_DATE_TIME ( #135, #84 ) ;
#214 = EDGE_CURVE ( 'NONE', #241, #262, #230, .T. ) ;
#215 = MANIFOLD_SOLID_BREP ( 'Corps-Déplacer/Copier1[1]', #10 ) ;
#216 = CARTESIAN_POINT ( 'NONE',  ( 2.623509591328939549E-13, -4.000000000000012434, 75.00000000000000000 ) ) ;
#217 = LOCAL_TIME ( 9, 9, 9.000000000000000000, #45 ) ;
#218 = ORIENTED_EDGE ( 'NONE', *, *, #220, .F. ) ;
#219 = ORIENTED_EDGE ( 'NONE', *, *, #198, .F. ) ;
#220 = EDGE_CURVE ( 'NONE', #41, #155, #200, .T. ) ;
#221 = ORIENTED_EDGE ( 'NONE', *, *, #198, .T. ) ;
#222 = VECTOR ( 'NONE', #186, 1000.000000000000000 ) ;
#223 = LINE ( 'NONE', #308, #110 ) ;
#224 = CARTESIAN_POINT ( 'NONE',  ( 1.047444401652940007E-13, 4.999999999999991118, 30.00000000000000000 ) ) ;
#225 = ORIENTED_EDGE ( 'NONE', *, *, #272, .T. ) ;
#226 = DIRECTION ( 'NONE',  ( -3.491481338843133355E-15, 1.224646799147353207E-16, -1.000000000000000000 ) ) ;
#227 = PRODUCT_RELATED_PRODUCT_CATEGORY ( 'detail', '', ( #203 ) ) ;
#228 = DIRECTION ( 'NONE',  ( -4.275831445896958607E-31, -1.000000000000000000, -1.224646799147353207E-16 ) ) ;
#229 = CC_DESIGN_APPROVAL ( #84, ( #35 ) ) ;
#230 = LINE ( 'NONE', #190, #237 ) ;
#231 = PERSON_AND_ORGANIZATION_ROLE ( 'creator' ) ;
#232 = ORIENTED_EDGE ( 'NONE', *, *, #214, .F. ) ;
#233 = CONICAL_SURFACE ( 'NONE', #187, 4.000000000000002665, 0.7853981633974405074 ) ;
#234 = CARTESIAN_POINT ( 'NONE',  ( 1.047444401652940007E-13, -3.673940397442059178E-15, 30.00000000000000000 ) ) ;
#235 = APPROVAL_STATUS ( 'not_yet_approved' ) ;
#236 = PERSON_AND_ORGANIZATION ( #113, #157 ) ;
#237 = VECTOR ( 'NONE', #70, 1000.000000000000000 ) ;
#238 = FACE_OUTER_BOUND ( 'NONE', #31, .T. ) ;
#239 = PERSON_AND_ORGANIZATION_ROLE ( 'classification_officer' ) ;
#240 = DESIGN_CONTEXT ( 'detailed design', #303, 'design' ) ;
#241 = VERTEX_POINT ( 'NONE', #173 ) ;
#242 = PERSON_AND_ORGANIZATION_ROLE ( 'design_supplier' ) ;
#243 = CC_DESIGN_PERSON_AND_ORGANIZATION_ASSIGNMENT ( #261, #206, ( #203 ) ) ;
#244 = CLOSED_SHELL ( 'NONE', ( #136, #102, #185, #89 ) ) ;
#245 = ORIENTED_EDGE ( 'NONE', *, *, #272, .F. ) ;
#246 = EDGE_LOOP ( 'NONE', ( #64, #86, #293, #218 ) ) ;
#247 = EDGE_LOOP ( 'NONE', ( #115, #205 ) ) ;
#248 = AXIS2_PLACEMENT_3D ( 'NONE', #152, #72, #286 ) ;
#249 = DIRECTION ( 'NONE',  ( 0.000000000000000000, 1.000000000000000000, 0.000000000000000000 ) ) ;
#250 = CARTESIAN_POINT ( 'NONE',  ( 1.047444401652940007E-13, -3.673940397442059178E-15, 30.00000000000000000 ) ) ;
#251 = CYLINDRICAL_SURFACE ( 'NONE', #188, 4.999999999999992006 ) ;
#252 = DIRECTION ( 'NONE',  ( 3.491481338843133355E-15, -1.224646799147353207E-16, 1.000000000000000000 ) ) ;
#253 = DIRECTION ( 'NONE',  ( -3.491481338843133355E-15, 1.224646799147353207E-16, -1.000000000000000000 ) ) ;
#254 = CC_DESIGN_APPROVAL ( #194, ( #101 ) ) ;
#255 = EDGE_CURVE ( 'NONE', #167, #139, #57, .T. ) ;
#256 = DIRECTION ( 'NONE',  ( 0.000000000000000000, 1.000000000000000000, 0.000000000000000000 ) ) ;
#257 = CARTESIAN_POINT ( 'NONE',  ( 0.000000000000000000, 0.000000000000000000, 0.000000000000000000 ) ) ;
#258 = EDGE_CURVE ( 'NONE', #97, #41, #223, .T. ) ;
#259 = DIRECTION ( 'NONE',  ( 0.000000000000000000, 1.000000000000000000, 0.000000000000000000 ) ) ;
#260 = VECTOR ( 'NONE', #268, 1000.000000000000000 ) ;
#261 = PERSON_AND_ORGANIZATION ( #113, #157 ) ;
#262 = VERTEX_POINT ( 'NONE', #121 ) ;
#263 = DIRECTION ( 'NONE',  ( -3.491481338843133355E-15, 1.224646799147353207E-16, -1.000000000000000000 ) ) ;
#264 = PERSON_AND_ORGANIZATION_ROLE ( 'creator' ) ;
#265 = AXIS2_PLACEMENT_3D ( 'NONE', #196, #25, #168 ) ;
#266 = FACE_OUTER_BOUND ( 'NONE', #246, .T. ) ;
#267 = ADVANCED_BREP_SHAPE_REPRESENTATION ( '372754', ( #215, #90, #248 ), #288 ) ;
#268 = DIRECTION ( 'NONE',  ( -3.491481338843133355E-15, 1.224646799147353207E-16, -1.000000000000000000 ) ) ;
#269 = APPROVAL_ROLE ( '' ) ;
#270 = DIRECTION ( 'NONE',  ( -3.491481338843133355E-15, 1.224646799147353207E-16, -1.000000000000000000 ) ) ;
#271 = DATE_AND_TIME ( #189, #169 ) ;
#272 = EDGE_CURVE ( 'NONE', #273, #66, #16, .T. ) ;
#273 = VERTEX_POINT ( 'NONE', #224 ) ;
#274 = DIRECTION ( 'NONE',  ( 0.000000000000000000, 1.000000000000000000, 0.000000000000000000 ) ) ;
#275 = CIRCLE ( 'NONE', #164, 4.999999999999994671 ) ;
#276 = CIRCLE ( 'NONE', #100, 4.999999999999994671 ) ;
#277 = CARTESIAN_POINT ( 'NONE',  ( 2.618611004132350143E-13, -9.184850993605148733E-15, 75.00000000000000000 ) ) ;
#278 = DIRECTION ( 'NONE',  ( 3.491481338843133355E-15, -1.224646799147353207E-16, 1.000000000000000000 ) ) ;
#279 = CARTESIAN_POINT ( 'NONE',  ( 2.606664508034296737E-13, -4.000000000000012434, 75.00000000000000000 ) ) ;
#280 =( LENGTH_UNIT ( ) NAMED_UNIT ( * ) SI_UNIT ( .MILLI., .METRE. ) );
#281 = CARTESIAN_POINT ( 'NONE',  ( -1.710332297431663329E-30, 5.999038145287737349E-32, -4.898586391982162561E-16 ) ) ;
#282 = PERSON_AND_ORGANIZATION ( #113, #157 ) ;
#283 = ADVANCED_FACE ( 'NONE', ( #313 ), #40, .T. ) ;
#284 = DIRECTION ( 'NONE',  ( -3.491481338843133355E-15, 1.224646799147353207E-16, -1.000000000000000000 ) ) ;
#285 = APPLICATION_CONTEXT ( 'configuration controlled 3d designs of mechanical parts and assemblies' ) ;
#286 = DIRECTION ( 'NONE',  ( 1.000000000000000000, 0.000000000000000000, 0.000000000000000000 ) ) ;
#287 = DIRECTION ( 'NONE',  ( 0.000000000000000000, 1.000000000000000000, 0.000000000000000000 ) ) ;
#288 =( GEOMETRIC_REPRESENTATION_CONTEXT ( 3 ) GLOBAL_UNCERTAINTY_ASSIGNED_CONTEXT ( ( #140 ) ) GLOBAL_UNIT_ASSIGNED_CONTEXT ( ( #280, #6, #32 ) ) REPRESENTATION_CONTEXT ( 'NONE', 'WORKASPACE' ) );
#289 = CARTESIAN_POINT ( 'NONE',  ( 1.047444401652940007E-13, 3.749399456654635261E-32, 30.00000000000000000 ) ) ;
#290 = AXIS2_PLACEMENT_3D ( 'NONE', #9, #37, #211 ) ;
#291 = DIRECTION ( 'NONE',  ( -3.491481338843133355E-15, 1.224646799147353207E-16, -1.000000000000000000 ) ) ;
#292 = PERSON_AND_ORGANIZATION ( #113, #157 ) ;
#293 = ORIENTED_EDGE ( 'NONE', *, *, #81, .T. ) ;
#294 = LOCAL_TIME ( 9, 9, 9.000000000000000000, #43 ) ;
#295 = CYLINDRICAL_SURFACE ( 'NONE', #307, 4.999999999999992006 ) ;
#296 = EDGE_CURVE ( 'NONE', #163, #97, #122, .T. ) ;
#297 = AXIS2_PLACEMENT_3D ( 'NONE', #281, #284, #54 ) ;
#298 = CARTESIAN_POINT ( 'NONE',  ( -8.551661487158316647E-31, 2.999519072643868674E-32, -2.449293195991081280E-16 ) ) ;
#299 = ORIENTED_EDGE ( 'NONE', *, *, #4, .F. ) ;
#300 = CIRCLE ( 'NONE', #11, 4.999999999999990230 ) ;
#301 = DIRECTION ( 'NONE',  ( -2.468850131082284276E-15, 0.7071067811865421326, -0.7071067811865530128 ) ) ;
#302 = APPROVAL_ROLE ( '' ) ;
#303 = APPLICATION_CONTEXT ( 'configuration controlled 3d designs of mechanical parts and assemblies' ) ;
#304 = CALENDAR_DATE ( 2023, 31, 3 ) ;
#305 = CARTESIAN_POINT ( 'NONE',  ( 2.618611004132350143E-13, -9.184850993605148733E-15, 75.00000000000000000 ) ) ;
#306 = COORDINATED_UNIVERSAL_TIME_OFFSET ( 1, 0, .AHEAD. ) ;
#307 = AXIS2_PLACEMENT_3D ( 'NONE', #112, #137, #144 ) ;
#308 = CARTESIAN_POINT ( 'NONE',  ( 6.123233995736742617E-16, -4.999999999999998224, -6.123233995736785018E-16 ) ) ;
#309 = EDGE_LOOP ( 'NONE', ( #109, #22 ) ) ;
#310 = ORIENTED_EDGE ( 'NONE', *, *, #214, .T. ) ;
#311 = ORIENTED_EDGE ( 'NONE', *, *, #296, .T. ) ;
#312 = FACE_OUTER_BOUND ( 'NONE', #180, .T. ) ;
#313 = FACE_OUTER_BOUND ( 'NONE', #141, .T. ) ;
ENDSEC;
END-ISO-10303-21;
