ISO-10303-21;
HEADER;
FILE_DESCRIPTION (( 'STEP AP203' ),
    '1' );
FILE_NAME ('372753.step',
    '2023-03-31T07:09:09',
    ( '' ),
    ( '' ),
    'SwSTEP 2.0',
    'SolidWorks 2022',
    '' );
FILE_SCHEMA (( 'CONFIG_CONTROL_DESIGN' ));
ENDSEC;

DATA;
#1 = DIRECTION ( 'NONE',  ( -3.491481338843133355E-15, 1.224646799147353207E-16, -1.000000000000000000 ) ) ;
#2 = AXIS2_PLACEMENT_3D ( 'NONE', #300, #121, #224 ) ;
#3 = APPROVAL_STATUS ( 'not_yet_approved' ) ;
#4 = DIRECTION ( 'NONE',  ( 0.000000000000000000, 1.000000000000000000, 0.000000000000000000 ) ) ;
#5 = EDGE_CURVE ( 'NONE', #13, #110, #288, .T. ) ;
#6 = CARTESIAN_POINT ( 'NONE',  ( 8.379555213223520053E-14, -2.939152317953647894E-15, 24.00000000000000000 ) ) ;
#7 = APPROVAL_ROLE ( '' ) ;
#8 = CARTESIAN_POINT ( 'NONE',  ( 2.059973989917448806E-13, -7.225416114969384785E-15, 59.00000000000000711 ) ) ;
#9 = AXIS2_PLACEMENT_3D ( 'NONE', #112, #217, #308 ) ;
#10 = CIRCLE ( 'NONE', #99, 4.999999999999997335 ) ;
#11 = LOCAL_TIME ( 9, 9, 9.000000000000000000, #91 ) ;
#12 = DATE_AND_TIME ( #155, #222 ) ;
#13 = VERTEX_POINT ( 'NONE', #192 ) ;
#14 = LINE ( 'NONE', #104, #298 ) ;
#15 = ORIENTED_EDGE ( 'NONE', *, *, #117, .F. ) ;
#16 = CIRCLE ( 'NONE', #9, 4.999999999999992895 ) ;
#17 = DIRECTION ( 'NONE',  ( 3.491481338843133355E-15, -1.224646799147353207E-16, 1.000000000000000000 ) ) ;
#18 = ORIENTED_EDGE ( 'NONE', *, *, #166, .T. ) ;
#19 = CC_DESIGN_PERSON_AND_ORGANIZATION_ASSIGNMENT ( #175, #51, ( #26 ) ) ;
#20 = CARTESIAN_POINT ( 'NONE',  ( 1.455087989615636911E-13, -4.999999999999995559, 24.00000000000000000 ) ) ;
#21 = DIRECTION ( 'NONE',  ( -3.491481338843133355E-15, 1.224646799147353207E-16, -1.000000000000000000 ) ) ;
#22 = PRODUCT_RELATED_PRODUCT_CATEGORY ( 'detail', '', ( #26 ) ) ;
#23 = AXIS2_PLACEMENT_3D ( 'NONE', #212, #230, #235 ) ;
#24 = DIRECTION ( 'NONE',  ( -3.491481338843133355E-15, 1.224646799147353207E-16, -1.000000000000000000 ) ) ;
#25 = CARTESIAN_POINT ( 'NONE',  ( 2.094888803305880013E-13, -7.347880794884118356E-15, 60.00000000000000000 ) ) ;
#26 = PRODUCT ( '372753', '372753', '', ( #270 ) ) ;
#27 = CARTESIAN_POINT ( 'NONE',  ( 2.094888803305880013E-13, -7.347880794884118356E-15, 60.00000000000000000 ) ) ;
#28 = CARTESIAN_POINT ( 'NONE',  ( 2.094888803305880013E-13, -7.347880794884118356E-15, 60.00000000000000000 ) ) ;
#29 = CARTESIAN_POINT ( 'NONE',  ( 4.275753076543797008E-31, 4.999999999999990230, 1.224624353272506412E-16 ) ) ;
#30 = DIRECTION ( 'NONE',  ( 0.000000000000000000, 1.000000000000000000, 0.000000000000000000 ) ) ;
#31 = EDGE_CURVE ( 'NONE', #63, #266, #221, .T. ) ;
#32 = APPROVAL_PERSON_ORGANIZATION ( #284, #193, #152 ) ;
#33 = CARTESIAN_POINT ( 'NONE',  ( 2.059973989917448806E-13, 4.999999999999990230, 59.00000000000000711 ) ) ;
#34 = COORDINATED_UNIVERSAL_TIME_OFFSET ( 1, 0, .AHEAD. ) ;
#35 = DIRECTION ( 'NONE',  ( 4.275831445896958607E-31, 1.000000000000000000, 1.224646799147353207E-16 ) ) ;
#36 = FACE_OUTER_BOUND ( 'NONE', #304, .T. ) ;
#37 = PERSON_AND_ORGANIZATION ( #47, #179 ) ;
#38 = ORIENTED_EDGE ( 'NONE', *, *, #238, .T. ) ;
#39 = APPROVAL_DATE_TIME ( #181, #154 ) ;
#40 = CC_DESIGN_PERSON_AND_ORGANIZATION_ASSIGNMENT ( #37, #301, ( #62 ) ) ;
#41 = DIRECTION ( 'NONE',  ( -3.491481338843133355E-15, 1.224646799147353207E-16, -1.000000000000000000 ) ) ;
#42 = VERTEX_POINT ( 'NONE', #311 ) ;
#43 = CC_DESIGN_PERSON_AND_ORGANIZATION_ASSIGNMENT ( #289, #303, ( #102 ) ) ;
#44 = APPLICATION_PROTOCOL_DEFINITION ( 'international standard', 'config_control_design', 1994, #241 ) ;
#45 = CIRCLE ( 'NONE', #229, 3.999999999999997335 ) ;
#46 = DIRECTION ( 'NONE',  ( 0.000000000000000000, 1.000000000000000000, 0.000000000000000000 ) ) ;
#47 = PERSON ( 'UNSPECIFIED', 'UNSPECIFIED', 'UNSPECIFIED', ('UNSPECIFIED'), ('UNSPECIFIED'), ('UNSPECIFIED') ) ;
#48 = CIRCLE ( 'NONE', #290, 4.999999999999990230 ) ;
#49 = DIRECTION ( 'NONE',  ( 0.000000000000000000, 1.000000000000000000, 0.000000000000000000 ) ) ;
#50 = CARTESIAN_POINT ( 'NONE',  ( 2.094888803305880013E-13, -7.347880794884118356E-15, 60.00000000000000000 ) ) ;
#51 = PERSON_AND_ORGANIZATION_ROLE ( 'design_owner' ) ;
#52 = CALENDAR_DATE ( 2023, 31, 3 ) ;
#53 = CIRCLE ( 'NONE', #145, 4.999999999999990230 ) ;
#54 = FACE_OUTER_BOUND ( 'NONE', #106, .T. ) ;
#55 = AXIS2_PLACEMENT_3D ( 'NONE', #262, #305, #135 ) ;
#56 = DIRECTION ( 'NONE',  ( 3.491481338843133355E-15, -1.224646799147353207E-16, 1.000000000000000000 ) ) ;
#57 = APPROVAL_PERSON_ORGANIZATION ( #203, #68, #7 ) ;
#58 = COORDINATED_UNIVERSAL_TIME_OFFSET ( 1, 0, .AHEAD. ) ;
#59 = ORIENTED_EDGE ( 'NONE', *, *, #256, .F. ) ;
#60 = ORIENTED_EDGE ( 'NONE', *, *, #83, .T. ) ;
#61 = AXIS2_PLACEMENT_3D ( 'NONE', #25, #73, #4 ) ;
#62 = PRODUCT_DEFINITION_FORMATION_WITH_SPECIFIED_SOURCE ( 'ANY', '', #26, .NOT_KNOWN. ) ;
#63 = VERTEX_POINT ( 'NONE', #167 ) ;
#64 = VECTOR ( 'NONE', #66, 1000.000000000000000 ) ;
#65 = CARTESIAN_POINT ( 'NONE',  ( 0.000000000000000000, 0.000000000000000000, 0.000000000000000000 ) ) ;
#66 = DIRECTION ( 'NONE',  ( -3.491481338843133355E-15, 1.224646799147353207E-16, -1.000000000000000000 ) ) ;
#67 = AXIS2_PLACEMENT_3D ( 'NONE', #172, #1, #197 ) ;
#68 = APPROVAL ( #3, 'UNSPECIFIED' ) ;
#69 = FACE_OUTER_BOUND ( 'NONE', #209, .T. ) ;
#70 = DIRECTION ( 'NONE',  ( 0.000000000000000000, 1.000000000000000000, 0.000000000000000000 ) ) ;
#71 = CALENDAR_DATE ( 2023, 31, 3 ) ;
#72 = DIRECTION ( 'NONE',  ( -3.491481338843133355E-15, 1.224646799147353207E-16, -1.000000000000000000 ) ) ;
#73 = DIRECTION ( 'NONE',  ( -3.491481338843133355E-15, 1.224646799147353207E-16, -1.000000000000000000 ) ) ;
#74 = SECURITY_CLASSIFICATION ( '', '', #260 ) ;
#75 = EDGE_LOOP ( 'NONE', ( #186, #239, #162, #15 ) ) ;
#76 = PERSON_AND_ORGANIZATION ( #47, #179 ) ;
#77 = FACE_OUTER_BOUND ( 'NONE', #127, .T. ) ;
#78 = CC_DESIGN_PERSON_AND_ORGANIZATION_ASSIGNMENT ( #227, #257, ( #62 ) ) ;
#79 = CIRCLE ( 'NONE', #146, 4.999999999999992895 ) ;
#80 = VERTEX_POINT ( 'NONE', #90 ) ;
#81 = DIRECTION ( 'NONE',  ( -2.382254525458708398E-15, -0.7071067811865495711, -0.7071067811865454633 ) ) ;
#82 = ORIENTED_EDGE ( 'NONE', *, *, #187, .T. ) ;
#83 = EDGE_CURVE ( 'NONE', #110, #161, #195, .T. ) ;
#84 =( LENGTH_UNIT ( ) NAMED_UNIT ( * ) SI_UNIT ( .MILLI., .METRE. ) );
#85 = EDGE_LOOP ( 'NONE', ( #231, #109 ) ) ;
#86 = AXIS2_PLACEMENT_3D ( 'NONE', #267, #312, #111 ) ;
#87 = CC_DESIGN_DATE_AND_TIME_ASSIGNMENT ( #286, #160, ( #102 ) ) ;
#88 = EDGE_CURVE ( 'NONE', #263, #170, #250, .T. ) ;
#89 = ORIENTED_EDGE ( 'NONE', *, *, #256, .T. ) ;
#90 = CARTESIAN_POINT ( 'NONE',  ( 8.379555213223520053E-14, 4.999999999999990230, 24.00000000000000000 ) ) ;
#91 = COORDINATED_UNIVERSAL_TIME_OFFSET ( 1, 0, .AHEAD. ) ;
#92 = EDGE_CURVE ( 'NONE', #170, #263, #16, .T. ) ;
#93 = CARTESIAN_POINT ( 'NONE',  ( 2.137915722948477727E-30, 4.999999999999995559, 6.123233995736761352E-16 ) ) ;
#94 = DIRECTION ( 'NONE',  ( -3.491481338843133355E-15, 1.224646799147353207E-16, -1.000000000000000000 ) ) ;
#95 = DATE_TIME_ROLE ( 'classification_date' ) ;
#96 = FACE_OUTER_BOUND ( 'NONE', #85, .T. ) ;
#97 = ADVANCED_BREP_SHAPE_REPRESENTATION ( '372753', ( #220, #313, #86 ), #271 ) ;
#98 = DIRECTION ( 'NONE',  ( -3.491481338843133355E-15, 1.224646799147353207E-16, -1.000000000000000000 ) ) ;
#99 = AXIS2_PLACEMENT_3D ( 'NONE', #176, #94, #248 ) ;
#100 = FACE_OUTER_BOUND ( 'NONE', #216, .T. ) ;
#101 = AXIS2_PLACEMENT_3D ( 'NONE', #8, #302, #49 ) ;
#102 = PRODUCT_DEFINITION ( 'UNKNOWN', '', #62, #269 ) ;
#103 = ADVANCED_FACE ( 'NONE', ( #191 ), #310, .T. ) ;
#104 = CARTESIAN_POINT ( 'NONE',  ( 6.123233995736735714E-16, -4.999999999999992006, -6.123233995736777129E-16 ) ) ;
#105 = ADVANCED_FACE ( 'NONE', ( #96 ), #276, .F. ) ;
#106 = EDGE_LOOP ( 'NONE', ( #18, #273 ) ) ;
#107 = DIRECTION ( 'NONE',  ( -4.275831445896958607E-31, -1.000000000000000000, -1.224646799147353207E-16 ) ) ;
#108 = AXIS2_PLACEMENT_3D ( 'NONE', #218, #21, #143 ) ;
#109 = ORIENTED_EDGE ( 'NONE', *, *, #5, .F. ) ;
#110 = VERTEX_POINT ( 'NONE', #204 ) ;
#111 = DIRECTION ( 'NONE',  ( 1.000000000000000000, 0.000000000000000000, 0.000000000000000000 ) ) ;
#112 = CARTESIAN_POINT ( 'NONE',  ( 8.379555213223520053E-14, -2.939152317953647894E-15, 24.00000000000000000 ) ) ;
#113 = CIRCLE ( 'NONE', #188, 4.999999999999992895 ) ;
#114 = PERSON_AND_ORGANIZATION ( #47, #179 ) ;
#115 = EDGE_CURVE ( 'NONE', #161, #63, #10, .T. ) ;
#116 = DIRECTION ( 'NONE',  ( -3.491481338843133355E-15, 1.224646799147353207E-16, -1.000000000000000000 ) ) ;
#117 = EDGE_CURVE ( 'NONE', #42, #120, #53, .T. ) ;
#118 = UNCERTAINTY_MEASURE_WITH_UNIT (LENGTH_MEASURE( 1.000000000000000082E-05 ), #84, 'distance_accuracy_value', 'NONE');
#119 = CC_DESIGN_APPROVAL ( #68, ( #74 ) ) ;
#120 = VERTEX_POINT ( 'NONE', #29 ) ;
#121 = DIRECTION ( 'NONE',  ( 3.491481338843133355E-15, -1.224646799147353207E-16, 1.000000000000000000 ) ) ;
#122 = LINE ( 'NONE', #93, #136 ) ;
#123 = DIRECTION ( 'NONE',  ( 0.000000000000000000, 1.000000000000000000, 0.000000000000000000 ) ) ;
#124 = ADVANCED_FACE ( 'NONE', ( #54 ), #228, .F. ) ;
#125 = APPROVAL_DATE_TIME ( #12, #193 ) ;
#126 = CARTESIAN_POINT ( 'NONE',  ( -1.710340415294095486E-30, 5.999066618916201289E-32, -4.898609642464248037E-16 ) ) ;
#127 = EDGE_LOOP ( 'NONE', ( #261, #309, #292, #189 ) ) ;
#128 = CC_DESIGN_PERSON_AND_ORGANIZATION_ASSIGNMENT ( #76, #129, ( #74 ) ) ;
#129 = PERSON_AND_ORGANIZATION_ROLE ( 'classification_officer' ) ;
#130 = EDGE_CURVE ( 'NONE', #266, #80, #79, .T. ) ;
#131 = PLANE ( 'NONE',  #157 ) ;
#132 = CALENDAR_DATE ( 2023, 31, 3 ) ;
#133 = ORIENTED_EDGE ( 'NONE', *, *, #115, .F. ) ;
#134 = CC_DESIGN_DATE_AND_TIME_ASSIGNMENT ( #210, #95, ( #74 ) ) ;
#135 = DIRECTION ( 'NONE',  ( 4.275831445896958607E-31, 1.000000000000000000, 1.224646799147353207E-16 ) ) ;
#136 = VECTOR ( 'NONE', #24, 1000.000000000000000 ) ;
#137 = ORIENTED_EDGE ( 'NONE', *, *, #130, .T. ) ;
#138 = CYLINDRICAL_SURFACE ( 'NONE', #200, 4.999999999999995559 ) ;
#139 = CARTESIAN_POINT ( 'NONE',  ( 2.094888803305880013E-13, 3.999999999999990674, 60.00000000000000000 ) ) ;
#140 = ADVANCED_FACE ( 'NONE', ( #100 ), #207, .T. ) ;
#141 = DIRECTION ( 'NONE',  ( -3.491481338843133355E-15, 1.224646799147353207E-16, -1.000000000000000000 ) ) ;
#142 = APPROVAL_PERSON_ORGANIZATION ( #114, #154, #149 ) ;
#143 = DIRECTION ( 'NONE',  ( 0.000000000000000000, 1.000000000000000000, 0.000000000000000000 ) ) ;
#144 = ORIENTED_EDGE ( 'NONE', *, *, #115, .T. ) ;
#145 = AXIS2_PLACEMENT_3D ( 'NONE', #126, #151, #35 ) ;
#146 = AXIS2_PLACEMENT_3D ( 'NONE', #6, #98, #70 ) ;
#147 = DIRECTION ( 'NONE',  ( -3.491481338843133355E-15, 1.224646799147353207E-16, -1.000000000000000000 ) ) ;
#148 = CARTESIAN_POINT ( 'NONE',  ( -1.710340415294095486E-30, 5.999066618916201289E-32, -4.898609642464248037E-16 ) ) ;
#149 = APPROVAL_ROLE ( '' ) ;
#150 = CC_DESIGN_APPROVAL ( #193, ( #62 ) ) ;
#151 = DIRECTION ( 'NONE',  ( -3.491481338843133355E-15, 1.224646799147353207E-16, -1.000000000000000000 ) ) ;
#152 = APPROVAL_ROLE ( '' ) ;
#153 = CYLINDRICAL_SURFACE ( 'NONE', #23, 4.999999999999992006 ) ;
#154 = APPROVAL ( #196, 'UNSPECIFIED' ) ;
#155 = CALENDAR_DATE ( 2023, 31, 3 ) ;
#156 = VECTOR ( 'NONE', #242, 1000.000000000000000 ) ;
#157 = AXIS2_PLACEMENT_3D ( 'NONE', #265, #17, #107 ) ;
#158 = CARTESIAN_POINT ( 'NONE',  ( 2.099787390502469419E-13, -4.000000000000004441, 60.00000000000000000 ) ) ;
#159 = ORIENTED_EDGE ( 'NONE', *, *, #31, .F. ) ;
#160 = DATE_TIME_ROLE ( 'creation_date' ) ;
#161 = VERTEX_POINT ( 'NONE', #33 ) ;
#162 = ORIENTED_EDGE ( 'NONE', *, *, #252, .T. ) ;
#163 = CC_DESIGN_SECURITY_CLASSIFICATION ( #74, ( #62 ) ) ;
#164 = ORIENTED_EDGE ( 'NONE', *, *, #83, .F. ) ;
#165 = EDGE_LOOP ( 'NONE', ( #159, #82, #89, #259 ) ) ;
#166 = EDGE_CURVE ( 'NONE', #120, #42, #48, .T. ) ;
#167 = CARTESIAN_POINT ( 'NONE',  ( 1.455087989615636658E-13, -5.000000000000004441, 59.00000000000000711 ) ) ;
#168 = ORIENTED_EDGE ( 'NONE', *, *, #187, .F. ) ;
#169 = PRODUCT_DEFINITION_SHAPE ( 'NONE', 'NONE',  #102 ) ;
#170 = VERTEX_POINT ( 'NONE', #225 ) ;
#171 = CYLINDRICAL_SURFACE ( 'NONE', #67, 4.999999999999995559 ) ;
#172 = CARTESIAN_POINT ( 'NONE',  ( 0.000000000000000000, 0.000000000000000000, 0.000000000000000000 ) ) ;
#173 = CARTESIAN_POINT ( 'NONE',  ( 8.379555213223520053E-14, 3.749399456654635261E-32, 24.00000000000000000 ) ) ;
#174 = EDGE_CURVE ( 'NONE', #80, #266, #113, .T. ) ;
#175 = PERSON_AND_ORGANIZATION ( #47, #179 ) ;
#176 = CARTESIAN_POINT ( 'NONE',  ( 2.059973989917448806E-13, -7.225416114969384785E-15, 59.00000000000000711 ) ) ;
#177 = APPROVAL_DATE_TIME ( #281, #68 ) ;
#178 = COORDINATED_UNIVERSAL_TIME_OFFSET ( 1, 0, .AHEAD. ) ;
#179 = ORGANIZATION ( 'UNSPECIFIED', 'UNSPECIFIED', '' ) ;
#180 = DIRECTION ( 'NONE',  ( 4.275831445896958607E-31, 1.000000000000000000, 1.224646799147353207E-16 ) ) ;
#181 = DATE_AND_TIME ( #296, #11 ) ;
#182 = LINE ( 'NONE', #158, #226 ) ;
#183 = CIRCLE ( 'NONE', #101, 4.999999999999997335 ) ;
#184 = EDGE_LOOP ( 'NONE', ( #144, #233, #287, #59 ) ) ;
#185 = ADVANCED_FACE ( 'NONE', ( #69 ), #202, .F. ) ;
#186 = ORIENTED_EDGE ( 'NONE', *, *, #198, .F. ) ;
#187 = EDGE_CURVE ( 'NONE', #63, #161, #183, .T. ) ;
#188 = AXIS2_PLACEMENT_3D ( 'NONE', #283, #279, #123 ) ;
#189 = ORIENTED_EDGE ( 'NONE', *, *, #252, .F. ) ;
#190 = FACE_OUTER_BOUND ( 'NONE', #165, .T. ) ;
#191 = FACE_OUTER_BOUND ( 'NONE', #237, .T. ) ;
#192 = CARTESIAN_POINT ( 'NONE',  ( 2.082942307207827617E-13, -4.000000000000004441, 60.00000000000000000 ) ) ;
#193 = APPROVAL ( #232, 'UNSPECIFIED' ) ;
#194 = APPLICATION_CONTEXT ( 'configuration controlled 3d designs of mechanical parts and assemblies' ) ;
#195 = LINE ( 'NONE', #139, #156 ) ;
#196 = APPROVAL_STATUS ( 'not_yet_approved' ) ;
#197 = DIRECTION ( 'NONE',  ( 4.275831445896959482E-31, 1.000000000000000000, 1.224646799147353454E-16 ) ) ;
#198 = EDGE_CURVE ( 'NONE', #263, #42, #14, .T. ) ;
#199 = DIRECTION ( 'NONE',  ( -3.491481338843133355E-15, 1.224646799147353207E-16, -1.000000000000000000 ) ) ;
#200 = AXIS2_PLACEMENT_3D ( 'NONE', #65, #249, #245 ) ;
#201 = APPLICATION_PROTOCOL_DEFINITION ( 'international standard', 'config_control_design', 1994, #194 ) ;
#202 = PLANE ( 'NONE',  #244 ) ;
#203 = PERSON_AND_ORGANIZATION ( #47, #179 ) ;
#204 = CARTESIAN_POINT ( 'NONE',  ( 2.094888803305880013E-13, 3.999999999999990674, 60.00000000000000000 ) ) ;
#205 = COORDINATED_UNIVERSAL_TIME_OFFSET ( 1, 0, .AHEAD. ) ;
#206 = AXIS2_PLACEMENT_3D ( 'NONE', #27, #116, #46 ) ;
#207 = CONICAL_SURFACE ( 'NONE', #280, 3.999999999999997335, 0.7853981633974513876 ) ;
#208 = DIRECTION ( 'NONE',  ( 0.000000000000000000, 1.000000000000000000, 0.000000000000000000 ) ) ;
#209 = EDGE_LOOP ( 'NONE', ( #236, #137 ) ) ;
#210 = DATE_AND_TIME ( #132, #264 ) ;
#211 = CLOSED_SHELL ( 'NONE', ( #214, #124, #219, #215 ) ) ;
#212 = CARTESIAN_POINT ( 'NONE',  ( 0.000000000000000000, 0.000000000000000000, 0.000000000000000000 ) ) ;
#213 = ORIENTED_EDGE ( 'NONE', *, *, #5, .T. ) ;
#214 = ADVANCED_FACE ( 'NONE', ( #77 ), #254, .T. ) ;
#215 = ADVANCED_FACE ( 'NONE', ( #36 ), #131, .T. ) ;
#216 = EDGE_LOOP ( 'NONE', ( #268, #213, #60, #168 ) ) ;
#217 = DIRECTION ( 'NONE',  ( -3.491481338843133355E-15, 1.224646799147353207E-16, -1.000000000000000000 ) ) ;
#218 = CARTESIAN_POINT ( 'NONE',  ( 8.379555213223520053E-14, -2.939152317953647894E-15, 24.00000000000000000 ) ) ;
#219 = ADVANCED_FACE ( 'NONE', ( #285 ), #153, .T. ) ;
#220 = MANIFOLD_SOLID_BREP ( 'Corps-Déplacer/Copier1[1]', #255 ) ;
#221 = LINE ( 'NONE', #295, #64 ) ;
#222 = LOCAL_TIME ( 9, 9, 9.000000000000000000, #58 ) ;
#223 =( NAMED_UNIT ( * ) SI_UNIT ( $, .STERADIAN. ) SOLID_ANGLE_UNIT ( ) );
#224 = DIRECTION ( 'NONE',  ( -4.275831445896958607E-31, -1.000000000000000000, -1.224646799147353207E-16 ) ) ;
#225 = CARTESIAN_POINT ( 'NONE',  ( 8.379555213223520053E-14, 4.999999999999990230, 24.00000000000000000 ) ) ;
#226 = VECTOR ( 'NONE', #81, 1000.000000000000000 ) ;
#227 = PERSON_AND_ORGANIZATION ( #47, #179 ) ;
#228 = PLANE ( 'NONE',  #2 ) ;
#229 = AXIS2_PLACEMENT_3D ( 'NONE', #28, #275, #30 ) ;
#230 = DIRECTION ( 'NONE',  ( -3.491481338843133355E-15, 1.224646799147353207E-16, -1.000000000000000000 ) ) ;
#231 = ORIENTED_EDGE ( 'NONE', *, *, #297, .F. ) ;
#232 = APPROVAL_STATUS ( 'not_yet_approved' ) ;
#233 = ORIENTED_EDGE ( 'NONE', *, *, #31, .T. ) ;
#234 = CC_DESIGN_APPROVAL ( #154, ( #102 ) ) ;
#235 = DIRECTION ( 'NONE',  ( 4.275831445896958607E-31, 1.000000000000000000, 1.224646799147353207E-16 ) ) ;
#236 = ORIENTED_EDGE ( 'NONE', *, *, #174, .T. ) ;
#237 = EDGE_LOOP ( 'NONE', ( #306, #38, #133, #164 ) ) ;
#238 = EDGE_CURVE ( 'NONE', #13, #63, #182, .T. ) ;
#239 = ORIENTED_EDGE ( 'NONE', *, *, #88, .T. ) ;
#240 = ORIENTED_EDGE ( 'NONE', *, *, #88, .F. ) ;
#241 = APPLICATION_CONTEXT ( 'configuration controlled 3d designs of mechanical parts and assemblies' ) ;
#242 = DIRECTION ( 'NONE',  ( -2.468850131082257455E-15, 0.7071067811865497932, -0.7071067811865452413 ) ) ;
#243 = AXIS2_PLACEMENT_3D ( 'NONE', #299, #147, #246 ) ;
#244 = AXIS2_PLACEMENT_3D ( 'NONE', #173, #56, #253 ) ;
#245 = DIRECTION ( 'NONE',  ( 4.275831445896959482E-31, 1.000000000000000000, 1.224646799147353454E-16 ) ) ;
#246 = DIRECTION ( 'NONE',  ( 4.275831445896958607E-31, 1.000000000000000000, 1.224646799147353207E-16 ) ) ;
#247 = CARTESIAN_POINT ( 'NONE',  ( 2.137915722948475975E-30, 4.999999999999992006, 6.123233995736756422E-16 ) ) ;
#248 = DIRECTION ( 'NONE',  ( 0.000000000000000000, 1.000000000000000000, 0.000000000000000000 ) ) ;
#249 = DIRECTION ( 'NONE',  ( -3.491481338843133355E-15, 1.224646799147353207E-16, -1.000000000000000000 ) ) ;
#250 = CIRCLE ( 'NONE', #108, 4.999999999999992895 ) ;
#251 = LOCAL_TIME ( 9, 9, 9.000000000000000000, #205 ) ;
#252 = EDGE_CURVE ( 'NONE', #170, #120, #291, .T. ) ;
#253 = DIRECTION ( 'NONE',  ( -4.275831445896958607E-31, -1.000000000000000000, -1.224646799147353207E-16 ) ) ;
#254 = CYLINDRICAL_SURFACE ( 'NONE', #55, 4.999999999999992006 ) ;
#255 = CLOSED_SHELL ( 'NONE', ( #103, #272, #185, #282, #140, #105 ) ) ;
#256 = EDGE_CURVE ( 'NONE', #161, #80, #122, .T. ) ;
#257 = PERSON_AND_ORGANIZATION_ROLE ( 'creator' ) ;
#258 = VECTOR ( 'NONE', #141, 1000.000000000000000 ) ;
#259 = ORIENTED_EDGE ( 'NONE', *, *, #130, .F. ) ;
#260 = SECURITY_CLASSIFICATION_LEVEL ( 'unclassified' ) ;
#261 = ORIENTED_EDGE ( 'NONE', *, *, #92, .T. ) ;
#262 = CARTESIAN_POINT ( 'NONE',  ( 0.000000000000000000, 0.000000000000000000, 0.000000000000000000 ) ) ;
#263 = VERTEX_POINT ( 'NONE', #277 ) ;
#264 = LOCAL_TIME ( 9, 9, 9.000000000000000000, #178 ) ;
#265 = CARTESIAN_POINT ( 'NONE',  ( 8.379555213223520053E-14, 3.749399456654635261E-32, 24.00000000000000000 ) ) ;
#266 = VERTEX_POINT ( 'NONE', #20 ) ;
#267 = CARTESIAN_POINT ( 'NONE',  ( 0.000000000000000000, 0.000000000000000000, 0.000000000000000000 ) ) ;
#268 = ORIENTED_EDGE ( 'NONE', *, *, #238, .F. ) ;
#269 = DESIGN_CONTEXT ( 'detailed design', #241, 'design' ) ;
#270 = MECHANICAL_CONTEXT ( 'NONE', #194, 'mechanical' ) ;
#271 =( GEOMETRIC_REPRESENTATION_CONTEXT ( 3 ) GLOBAL_UNCERTAINTY_ASSIGNED_CONTEXT ( ( #118 ) ) GLOBAL_UNIT_ASSIGNED_CONTEXT ( ( #84, #307, #223 ) ) REPRESENTATION_CONTEXT ( 'NONE', 'WORKASPACE' ) );
#272 = ADVANCED_FACE ( 'NONE', ( #274 ), #171, .T. ) ;
#273 = ORIENTED_EDGE ( 'NONE', *, *, #117, .T. ) ;
#274 = FACE_OUTER_BOUND ( 'NONE', #184, .T. ) ;
#275 = DIRECTION ( 'NONE',  ( -3.491481338843133355E-15, 1.224646799147353207E-16, -1.000000000000000000 ) ) ;
#276 = PLANE ( 'NONE',  #243 ) ;
#277 = CARTESIAN_POINT ( 'NONE',  ( 4.251009946569125707E-14, -4.999999999999996447, 24.00000000000000000 ) ) ;
#278 = SHAPE_DEFINITION_REPRESENTATION ( #169, #97 ) ;
#279 = DIRECTION ( 'NONE',  ( -3.491481338843133355E-15, 1.224646799147353207E-16, -1.000000000000000000 ) ) ;
#280 = AXIS2_PLACEMENT_3D ( 'NONE', #50, #199, #208 ) ;
#281 = DATE_AND_TIME ( #71, #294 ) ;
#282 = ADVANCED_FACE ( 'NONE', ( #190 ), #138, .T. ) ;
#283 = CARTESIAN_POINT ( 'NONE',  ( 8.379555213223520053E-14, -2.939152317953647894E-15, 24.00000000000000000 ) ) ;
#284 = PERSON_AND_ORGANIZATION ( #47, #179 ) ;
#285 = FACE_OUTER_BOUND ( 'NONE', #75, .T. ) ;
#286 = DATE_AND_TIME ( #52, #251 ) ;
#287 = ORIENTED_EDGE ( 'NONE', *, *, #174, .F. ) ;
#288 = CIRCLE ( 'NONE', #206, 3.999999999999997335 ) ;
#289 = PERSON_AND_ORGANIZATION ( #47, #179 ) ;
#290 = AXIS2_PLACEMENT_3D ( 'NONE', #148, #72, #180 ) ;
#291 = LINE ( 'NONE', #247, #258 ) ;
#292 = ORIENTED_EDGE ( 'NONE', *, *, #166, .F. ) ;
#293 = ORIENTED_EDGE ( 'NONE', *, *, #92, .F. ) ;
#294 = LOCAL_TIME ( 9, 9, 9.000000000000000000, #34 ) ;
#295 = CARTESIAN_POINT ( 'NONE',  ( 6.123233995736739658E-16, -4.999999999999995559, -6.123233995736781074E-16 ) ) ;
#296 = CALENDAR_DATE ( 2023, 31, 3 ) ;
#297 = EDGE_CURVE ( 'NONE', #110, #13, #45, .T. ) ;
#298 = VECTOR ( 'NONE', #41, 1000.000000000000000 ) ;
#299 = CARTESIAN_POINT ( 'NONE',  ( 2.094888803305880013E-13, 2.999519565323702626E-32, 60.00000000000000000 ) ) ;
#300 = CARTESIAN_POINT ( 'NONE',  ( -8.551702076470477431E-31, 2.999533309458100644E-32, -2.449304821232124019E-16 ) ) ;
#301 = PERSON_AND_ORGANIZATION_ROLE ( 'design_supplier' ) ;
#302 = DIRECTION ( 'NONE',  ( -3.491481338843133355E-15, 1.224646799147353207E-16, -1.000000000000000000 ) ) ;
#303 = PERSON_AND_ORGANIZATION_ROLE ( 'creator' ) ;
#304 = EDGE_LOOP ( 'NONE', ( #293, #240 ) ) ;
#305 = DIRECTION ( 'NONE',  ( -3.491481338843133355E-15, 1.224646799147353207E-16, -1.000000000000000000 ) ) ;
#306 = ORIENTED_EDGE ( 'NONE', *, *, #297, .T. ) ;
#307 =( NAMED_UNIT ( * ) PLANE_ANGLE_UNIT ( ) SI_UNIT ( $, .RADIAN. ) );
#308 = DIRECTION ( 'NONE',  ( 0.000000000000000000, 1.000000000000000000, 0.000000000000000000 ) ) ;
#309 = ORIENTED_EDGE ( 'NONE', *, *, #198, .T. ) ;
#310 = CONICAL_SURFACE ( 'NONE', #61, 3.999999999999997335, 0.7853981633974513876 ) ;
#311 = CARTESIAN_POINT ( 'NONE',  ( 4.251009946569125707E-14, -4.999999999999990230, -1.102184363820248555E-15 ) ) ;
#312 = DIRECTION ( 'NONE',  ( 0.000000000000000000, 0.000000000000000000, 1.000000000000000000 ) ) ;
#313 = MANIFOLD_SOLID_BREP ( 'Corps-Déplacer/Copier1[2]', #211 ) ;
ENDSEC;
END-ISO-10303-21;
