ISO-10303-21;
HEADER;
FILE_DESCRIPTION (( 'STEP AP203' ),
    '1' );
FILE_NAME ('372752.step',
    '2023-03-31T07:09:08',
    ( '' ),
    ( '' ),
    'SwSTEP 2.0',
    'SolidWorks 2022',
    '' );
FILE_SCHEMA (( 'CONFIG_CONTROL_DESIGN' ));
ENDSEC;

DATA;
#1 = DIRECTION ( 'NONE',  ( 4.275831445896958607E-31, 1.000000000000000000, 1.224646799147353207E-16 ) ) ;
#2 = DIRECTION ( 'NONE',  ( -3.491481338843133355E-15, 1.224646799147353207E-16, -1.000000000000000000 ) ) ;
#3 = DIRECTION ( 'NONE',  ( -3.491481338843133355E-15, 1.224646799147353207E-16, -1.000000000000000000 ) ) ;
#4 = DIRECTION ( 'NONE',  ( 4.275831445896958607E-31, 1.000000000000000000, 1.224646799147353207E-16 ) ) ;
#5 = EDGE_CURVE ( 'NONE', #286, #264, #159, .T. ) ;
#6 = VECTOR ( 'NONE', #167, 1000.000000000000000 ) ;
#7 = AXIS2_PLACEMENT_3D ( 'NONE', #269, #140, #19 ) ;
#8 = VECTOR ( 'NONE', #285, 1000.000000000000000 ) ;
#9 = CALENDAR_DATE ( 2023, 31, 3 ) ;
#10 = ORIENTED_EDGE ( 'NONE', *, *, #132, .F. ) ;
#11 = CYLINDRICAL_SURFACE ( 'NONE', #48, 3.999999999999999112 ) ;
#12 = ORIENTED_EDGE ( 'NONE', *, *, #67, .T. ) ;
#13 = ORIENTED_EDGE ( 'NONE', *, *, #289, .T. ) ;
#14 = LOCAL_TIME ( 9, 9, 8.000000000000000000, #194 ) ;
#15 = CARTESIAN_POINT ( 'NONE',  ( 2.793185071074506684E-13, -9.797174393178826052E-15, 80.00000000000000000 ) ) ;
#16 = EDGE_LOOP ( 'NONE', ( #300, #180, #208, #259 ) ) ;
#17 = CC_DESIGN_DATE_AND_TIME_ASSIGNMENT ( #136, #113, ( #96 ) ) ;
#18 = PERSON_AND_ORGANIZATION ( #147, #54 ) ;
#19 = DIRECTION ( 'NONE',  ( 0.000000000000000000, 1.000000000000000000, 0.000000000000000000 ) ) ;
#20 = AXIS2_PLACEMENT_3D ( 'NONE', #75, #127, #229 ) ;
#21 = CC_DESIGN_PERSON_AND_ORGANIZATION_ASSIGNMENT ( #74, #199, ( #272 ) ) ;
#22 = APPROVAL_PERSON_ORGANIZATION ( #18, #102, #307 ) ;
#23 = COORDINATED_UNIVERSAL_TIME_OFFSET ( 1, 0, .AHEAD. ) ;
#24 = CARTESIAN_POINT ( 'NONE',  ( 1.326762908760390423E-13, 2.999519565323705910E-32, 38.00000000000000000 ) ) ;
#25 = CARTESIAN_POINT ( 'NONE',  ( 1.326762908760390423E-13, -4.653657836759941941E-15, 38.00000000000000000 ) ) ;
#26 = AXIS2_PLACEMENT_3D ( 'NONE', #191, #270, #118 ) ;
#27 = LOCAL_TIME ( 9, 9, 8.000000000000000000, #23 ) ;
#28 = DIRECTION ( 'NONE',  ( 0.000000000000000000, 0.000000000000000000, 1.000000000000000000 ) ) ;
#29 = LINE ( 'NONE', #195, #6 ) ;
#30 = ADVANCED_FACE ( 'NONE', ( #165 ), #170, .T. ) ;
#31 = CARTESIAN_POINT ( 'NONE',  ( 2.050906651758665426E-13, -4.000000000000000000, 38.00000000000000000 ) ) ;
#32 = DATE_TIME_ROLE ( 'classification_date' ) ;
#33 = DIRECTION ( 'NONE',  ( 4.275831445896958607E-31, 1.000000000000000000, 1.224646799147353207E-16 ) ) ;
#34 = CARTESIAN_POINT ( 'NONE',  ( 2.793185071074506684E-13, 3.199999999999993072, 80.00000000000000000 ) ) ;
#35 = ORIENTED_EDGE ( 'NONE', *, *, #248, .T. ) ;
#36 = APPLICATION_CONTEXT ( 'configuration controlled 3d designs of mechanical parts and assemblies' ) ;
#37 = CARTESIAN_POINT ( 'NONE',  ( 2.765253220363762122E-13, -9.699202649247039195E-15, 79.20000000000001705 ) ) ;
#38 = ADVANCED_FACE ( 'NONE', ( #114 ), #41, .F. ) ;
#39 = EDGE_CURVE ( 'NONE', #178, #77, #89, .T. ) ;
#40 = APPROVAL_DATE_TIME ( #263, #211 ) ;
#41 = PLANE ( 'NONE',  #271 ) ;
#42 = APPROVAL ( #126, 'UNSPECIFIED' ) ;
#43 = PERSON_AND_ORGANIZATION_ROLE ( 'creator' ) ;
#44 = DIRECTION ( 'NONE',  ( -3.491481338843133355E-15, 1.224646799147353207E-16, -1.000000000000000000 ) ) ;
#45 = CC_DESIGN_APPROVAL ( #102, ( #190 ) ) ;
#46 = VERTEX_POINT ( 'NONE', #186 ) ;
#47 = AXIS2_PLACEMENT_3D ( 'NONE', #24, #294, #219 ) ;
#48 = AXIS2_PLACEMENT_3D ( 'NONE', #78, #223, #1 ) ;
#49 = DIRECTION ( 'NONE',  ( 4.275831445896958607E-31, 1.000000000000000000, 1.224646799147353207E-16 ) ) ;
#50 =( NAMED_UNIT ( * ) SI_UNIT ( $, .STERADIAN. ) SOLID_ANGLE_UNIT ( ) );
#51 = LINE ( 'NONE', #277, #200 ) ;
#52 = CIRCLE ( 'NONE', #150, 3.999999999999995559 ) ;
#53 = DIRECTION ( 'NONE',  ( -3.491481338843133355E-15, 1.224646799147353207E-16, -1.000000000000000000 ) ) ;
#54 = ORGANIZATION ( 'UNSPECIFIED', 'UNSPECIFIED', '' ) ;
#55 = PLANE ( 'NONE',  #290 ) ;
#56 = CLOSED_SHELL ( 'NONE', ( #162, #38, #135, #94 ) ) ;
#57 = EDGE_CURVE ( 'NONE', #286, #305, #266, .T. ) ;
#58 = EDGE_LOOP ( 'NONE', ( #287, #64, #202, #175 ) ) ;
#59 = ORIENTED_EDGE ( 'NONE', *, *, #132, .T. ) ;
#60 = CIRCLE ( 'NONE', #106, 3.999999999999995559 ) ;
#61 = EDGE_CURVE ( 'NONE', #237, #46, #310, .T. ) ;
#62 = EDGE_LOOP ( 'NONE', ( #210, #109, #158, #236 ) ) ;
#63 = PERSON_AND_ORGANIZATION ( #147, #54 ) ;
#64 = ORIENTED_EDGE ( 'NONE', *, *, #179, .T. ) ;
#65 = DIRECTION ( 'NONE',  ( 3.491481338843133355E-15, -1.224646799147353207E-16, 1.000000000000000000 ) ) ;
#66 = AXIS2_PLACEMENT_3D ( 'NONE', #148, #120, #4 ) ;
#67 = EDGE_CURVE ( 'NONE', #264, #286, #122, .T. ) ;
#68 = EDGE_LOOP ( 'NONE', ( #59, #156, #303, #234 ) ) ;
#69 = DIRECTION ( 'NONE',  ( -4.275831445896958607E-31, -1.000000000000000000, -1.224646799147353207E-16 ) ) ;
#70 = AXIS2_PLACEMENT_3D ( 'NONE', #37, #235, #105 ) ;
#71 = FACE_OUTER_BOUND ( 'NONE', #16, .T. ) ;
#72 = EDGE_CURVE ( 'NONE', #205, #131, #251, .T. ) ;
#73 = CARTESIAN_POINT ( 'NONE',  ( 0.000000000000000000, 0.000000000000000000, 0.000000000000000000 ) ) ;
#74 = PERSON_AND_ORGANIZATION ( #147, #54 ) ;
#75 = CARTESIAN_POINT ( 'NONE',  ( 0.000000000000000000, 0.000000000000000000, 0.000000000000000000 ) ) ;
#76 = DIRECTION ( 'NONE',  ( -3.491481338843133355E-15, 1.224646799147353207E-16, -1.000000000000000000 ) ) ;
#77 = VERTEX_POINT ( 'NONE', #188 ) ;
#78 = CARTESIAN_POINT ( 'NONE',  ( 0.000000000000000000, 0.000000000000000000, 0.000000000000000000 ) ) ;
#79 = LOCAL_TIME ( 9, 9, 8.000000000000000000, #220 ) ;
#80 = ORIENTED_EDGE ( 'NONE', *, *, #184, .T. ) ;
#81 = FACE_OUTER_BOUND ( 'NONE', #84, .T. ) ;
#82 = EDGE_LOOP ( 'NONE', ( #177, #35 ) ) ;
#83 = CALENDAR_DATE ( 2023, 31, 3 ) ;
#84 = EDGE_LOOP ( 'NONE', ( #183, #13, #232, #157 ) ) ;
#85 = APPROVAL_PERSON_ORGANIZATION ( #92, #211, #221 ) ;
#86 = CC_DESIGN_DATE_AND_TIME_ASSIGNMENT ( #203, #32, ( #272 ) ) ;
#87 = CARTESIAN_POINT ( 'NONE',  ( -1.282766372550154493E-30, 4.499338761231704644E-32, -3.673988912039226017E-16 ) ) ;
#88 = AXIS2_PLACEMENT_3D ( 'NONE', #15, #258, #155 ) ;
#89 = LINE ( 'NONE', #137, #225 ) ;
#90 = APPLICATION_PROTOCOL_DEFINITION ( 'international standard', 'config_control_design', 1994, #36 ) ;
#91 = CARTESIAN_POINT ( 'NONE',  ( -6.413831862750772464E-31, 2.249669380615852322E-32, -1.836994456019613009E-16 ) ) ;
#92 = PERSON_AND_ORGANIZATION ( #147, #54 ) ;
#93 = PLANE ( 'NONE',  #164 ) ;
#94 = ADVANCED_FACE ( 'NONE', ( #187 ), #115, .T. ) ;
#95 = FACE_OUTER_BOUND ( 'NONE', #58, .T. ) ;
#96 = PRODUCT_DEFINITION ( 'UNKNOWN', '', #190, #245 ) ;
#97 = CARTESIAN_POINT ( 'NONE',  ( -1.282766372550154493E-30, 4.499338761231704644E-32, -3.673988912039226017E-16 ) ) ;
#98 = COORDINATED_UNIVERSAL_TIME_OFFSET ( 1, 0, .AHEAD. ) ;
#99 = CIRCLE ( 'NONE', #189, 3.999999999999990674 ) ;
#100 = FACE_OUTER_BOUND ( 'NONE', #82, .T. ) ;
#101 = MANIFOLD_SOLID_BREP ( 'Corps-Déplacer/Copier1[1]', #154 ) ;
#102 = APPROVAL ( #214, 'UNSPECIFIED' ) ;
#103 = LINE ( 'NONE', #174, #182 ) ;
#104 = ORIENTED_EDGE ( 'NONE', *, *, #301, .F. ) ;
#105 = DIRECTION ( 'NONE',  ( 0.000000000000000000, 1.000000000000000000, 0.000000000000000000 ) ) ;
#106 = AXIS2_PLACEMENT_3D ( 'NONE', #201, #3, #299 ) ;
#107 = CONICAL_SURFACE ( 'NONE', #88, 3.200000000000003286, 0.7853981633974597143 ) ;
#108 = ORIENTED_EDGE ( 'NONE', *, *, #5, .F. ) ;
#109 = ORIENTED_EDGE ( 'NONE', *, *, #5, .T. ) ;
#110 = EDGE_LOOP ( 'NONE', ( #212, #108 ) ) ;
#111 = PERSON_AND_ORGANIZATION ( #147, #54 ) ;
#112 = DIRECTION ( 'NONE',  ( -2.382254525458687493E-15, -0.7071067811865554553, -0.7071067811865395791 ) ) ;
#113 = DATE_TIME_ROLE ( 'creation_date' ) ;
#114 = FACE_OUTER_BOUND ( 'NONE', #134, .T. ) ;
#115 = PLANE ( 'NONE',  #47 ) ;
#116 = CC_DESIGN_PERSON_AND_ORGANIZATION_ASSIGNMENT ( #111, #146, ( #96 ) ) ;
#117 = CIRCLE ( 'NONE', #26, 3.999999999999995559 ) ;
#118 = DIRECTION ( 'NONE',  ( 0.000000000000000000, 1.000000000000000000, 0.000000000000000000 ) ) ;
#119 = MECHANICAL_CONTEXT ( 'NONE', #36, 'mechanical' ) ;
#120 = DIRECTION ( 'NONE',  ( -3.491481338843133355E-15, 1.224646799147353207E-16, -1.000000000000000000 ) ) ;
#121 = PERSON_AND_ORGANIZATION ( #147, #54 ) ;
#122 = CIRCLE ( 'NONE', #143, 3.200000000000003286 ) ;
#123 = LOCAL_TIME ( 9, 9, 8.000000000000000000, #173 ) ;
#124 = SECURITY_CLASSIFICATION_LEVEL ( 'unclassified' ) ;
#125 = CARTESIAN_POINT ( 'NONE',  ( 1.326762908760390423E-13, 2.999519565323705910E-32, 38.00000000000000000 ) ) ;
#126 = APPROVAL_STATUS ( 'not_yet_approved' ) ;
#127 = DIRECTION ( 'NONE',  ( -3.491481338843133355E-15, 1.224646799147353207E-16, -1.000000000000000000 ) ) ;
#128 = PRODUCT_RELATED_PRODUCT_CATEGORY ( 'detail', '', ( #145 ) ) ;
#129 = CARTESIAN_POINT ( 'NONE',  ( 2.050906651758664669E-13, -4.000000000000012434, 79.20000000000001705 ) ) ;
#130 = EDGE_CURVE ( 'NONE', #77, #161, #117, .T. ) ;
#131 = VERTEX_POINT ( 'NONE', #216 ) ;
#132 = EDGE_CURVE ( 'NONE', #178, #305, #206, .T. ) ;
#133 = CARTESIAN_POINT ( 'NONE',  ( 4.898587196589395079E-16, -3.999999999999999112, -4.898587196589428606E-16 ) ) ;
#134 = EDGE_LOOP ( 'NONE', ( #288, #80 ) ) ;
#135 = ADVANCED_FACE ( 'NONE', ( #95 ), #198, .T. ) ;
#136 = DATE_AND_TIME ( #166, #14 ) ;
#137 = CARTESIAN_POINT ( 'NONE',  ( 1.710332578358783092E-30, 3.999999999999999112, 4.898587196589411843E-16 ) ) ;
#138 =( LENGTH_UNIT ( ) NAMED_UNIT ( * ) SI_UNIT ( .MILLI., .METRE. ) );
#139 = DIRECTION ( 'NONE',  ( 0.000000000000000000, 1.000000000000000000, 0.000000000000000000 ) ) ;
#140 = DIRECTION ( 'NONE',  ( -3.491481338843133355E-15, 1.224646799147353207E-16, -1.000000000000000000 ) ) ;
#141 = DIRECTION ( 'NONE',  ( -3.491481338843133355E-15, 1.224646799147353207E-16, -1.000000000000000000 ) ) ;
#142 = AXIS2_PLACEMENT_3D ( 'NONE', #73, #250, #249 ) ;
#143 = AXIS2_PLACEMENT_3D ( 'NONE', #215, #44, #139 ) ;
#144 = CYLINDRICAL_SURFACE ( 'NONE', #142, 3.999999999999999112 ) ;
#145 = PRODUCT ( '372752', '372752', '', ( #119 ) ) ;
#146 = PERSON_AND_ORGANIZATION_ROLE ( 'creator' ) ;
#147 = PERSON ( 'UNSPECIFIED', 'UNSPECIFIED', 'UNSPECIFIED', ('UNSPECIFIED'), ('UNSPECIFIED'), ('UNSPECIFIED') ) ;
#148 = CARTESIAN_POINT ( 'NONE',  ( 0.000000000000000000, 0.000000000000000000, 0.000000000000000000 ) ) ;
#149 = EDGE_CURVE ( 'NONE', #131, #46, #51, .T. ) ;
#150 = AXIS2_PLACEMENT_3D ( 'NONE', #304, #152, #254 ) ;
#151 = CARTESIAN_POINT ( 'NONE',  ( 2.793185071074506684E-13, 2.399615652258959583E-32, 80.00000000000000000 ) ) ;
#152 = DIRECTION ( 'NONE',  ( -3.491481338843133355E-15, 1.224646799147353207E-16, -1.000000000000000000 ) ) ;
#153 = CC_DESIGN_PERSON_AND_ORGANIZATION_ASSIGNMENT ( #313, #284, ( #190 ) ) ;
#154 = CLOSED_SHELL ( 'NONE', ( #243, #204, #176, #311, #30, #209 ) ) ;
#155 = DIRECTION ( 'NONE',  ( 0.000000000000000000, 1.000000000000000000, 0.000000000000000000 ) ) ;
#156 = ORIENTED_EDGE ( 'NONE', *, *, #275, .T. ) ;
#157 = ORIENTED_EDGE ( 'NONE', *, *, #248, .F. ) ;
#158 = ORIENTED_EDGE ( 'NONE', *, *, #301, .T. ) ;
#159 = CIRCLE ( 'NONE', #260, 3.200000000000003286 ) ;
#160 = APPROVAL_STATUS ( 'not_yet_approved' ) ;
#161 = VERTEX_POINT ( 'NONE', #31 ) ;
#162 = ADVANCED_FACE ( 'NONE', ( #71 ), #295, .T. ) ;
#163 = DIRECTION ( 'NONE',  ( 4.275831445896958607E-31, 1.000000000000000000, 1.224646799147353207E-16 ) ) ;
#164 = AXIS2_PLACEMENT_3D ( 'NONE', #125, #224, #197 ) ;
#165 = FACE_OUTER_BOUND ( 'NONE', #62, .T. ) ;
#166 = CALENDAR_DATE ( 2023, 31, 3 ) ;
#167 = DIRECTION ( 'NONE',  ( -3.491481338843133355E-15, 1.224646799147353207E-16, -1.000000000000000000 ) ) ;
#168 =( NAMED_UNIT ( * ) PLANE_ANGLE_UNIT ( ) SI_UNIT ( $, .RADIAN. ) );
#169 = DIRECTION ( 'NONE',  ( -3.491481338843133355E-15, 1.224646799147353207E-16, -1.000000000000000000 ) ) ;
#170 = CONICAL_SURFACE ( 'NONE', #7, 3.200000000000003286, 0.7853981633974597143 ) ;
#171 = CC_DESIGN_APPROVAL ( #211, ( #96 ) ) ;
#172 = FACE_OUTER_BOUND ( 'NONE', #68, .T. ) ;
#173 = COORDINATED_UNIVERSAL_TIME_OFFSET ( 1, 0, .AHEAD. ) ;
#174 = CARTESIAN_POINT ( 'NONE',  ( 2.793185071074506684E-13, 3.199999999999993072, 80.00000000000000000 ) ) ;
#175 = ORIENTED_EDGE ( 'NONE', *, *, #184, .F. ) ;
#176 = ADVANCED_FACE ( 'NONE', ( #100 ), #93, .F. ) ;
#177 = ORIENTED_EDGE ( 'NONE', *, *, #130, .T. ) ;
#178 = VERTEX_POINT ( 'NONE', #222 ) ;
#179 = EDGE_CURVE ( 'NONE', #131, #205, #60, .T. ) ;
#180 = ORIENTED_EDGE ( 'NONE', *, *, #149, .T. ) ;
#181 = APPLICATION_PROTOCOL_DEFINITION ( 'international standard', 'config_control_design', 1994, #297 ) ;
#182 = VECTOR ( 'NONE', #207, 1000.000000000000000 ) ;
#183 = ORIENTED_EDGE ( 'NONE', *, *, #275, .F. ) ;
#184 = EDGE_CURVE ( 'NONE', #46, #237, #99, .T. ) ;
#185 = CALENDAR_DATE ( 2023, 31, 3 ) ;
#186 = CARTESIAN_POINT ( 'NONE',  ( 6.682800415767844910E-14, -3.999999999999990674, -8.572576108630961548E-16 ) ) ;
#187 = FACE_OUTER_BOUND ( 'NONE', #291, .T. ) ;
#188 = CARTESIAN_POINT ( 'NONE',  ( 1.326762908760390423E-13, 3.999999999999991562, 38.00000000000000000 ) ) ;
#189 = AXIS2_PLACEMENT_3D ( 'NONE', #97, #76, #49 ) ;
#190 = PRODUCT_DEFINITION_FORMATION_WITH_SPECIFIED_SOURCE ( 'ANY', '', #145, .NOT_KNOWN. ) ;
#191 = CARTESIAN_POINT ( 'NONE',  ( 1.326762908760390423E-13, -4.653657836759941941E-15, 38.00000000000000000 ) ) ;
#192 = PRODUCT_DEFINITION_SHAPE ( 'NONE', 'NONE',  #96 ) ;
#193 = CARTESIAN_POINT ( 'NONE',  ( 0.000000000000000000, 0.000000000000000000, 0.000000000000000000 ) ) ;
#194 = COORDINATED_UNIVERSAL_TIME_OFFSET ( 1, 0, .AHEAD. ) ;
#195 = CARTESIAN_POINT ( 'NONE',  ( 1.710332578358780640E-30, 3.999999999999993339, 4.898587196589404940E-16 ) ) ;
#196 = CC_DESIGN_SECURITY_CLASSIFICATION ( #272, ( #190 ) ) ;
#197 = DIRECTION ( 'NONE',  ( -4.275831445896958607E-31, -1.000000000000000000, -1.224646799147353207E-16 ) ) ;
#198 = CYLINDRICAL_SURFACE ( 'NONE', #20, 3.999999999999993339 ) ;
#199 = PERSON_AND_ORGANIZATION_ROLE ( 'classification_officer' ) ;
#200 = VECTOR ( 'NONE', #53, 1000.000000000000000 ) ;
#201 = CARTESIAN_POINT ( 'NONE',  ( 1.326762908760390423E-13, -4.653657836759941941E-15, 38.00000000000000000 ) ) ;
#202 = ORIENTED_EDGE ( 'NONE', *, *, #228, .T. ) ;
#203 = DATE_AND_TIME ( #9, #255 ) ;
#204 = ADVANCED_FACE ( 'NONE', ( #172 ), #144, .T. ) ;
#205 = VERTEX_POINT ( 'NONE', #253 ) ;
#206 = CIRCLE ( 'NONE', #306, 4.000000000000002665 ) ;
#207 = DIRECTION ( 'NONE',  ( -2.468850131082236945E-15, 0.7071067811865556774, -0.7071067811865393571 ) ) ;
#208 = ORIENTED_EDGE ( 'NONE', *, *, #61, .F. ) ;
#209 = ADVANCED_FACE ( 'NONE', ( #279 ), #55, .F. ) ;
#210 = ORIENTED_EDGE ( 'NONE', *, *, #57, .F. ) ;
#211 = APPROVAL ( #160, 'UNSPECIFIED' ) ;
#212 = ORIENTED_EDGE ( 'NONE', *, *, #67, .F. ) ;
#213 = AXIS2_PLACEMENT_3D ( 'NONE', #87, #141, #163 ) ;
#214 = APPROVAL_STATUS ( 'not_yet_approved' ) ;
#215 = CARTESIAN_POINT ( 'NONE',  ( 2.793185071074506684E-13, -9.797174393178826052E-15, 80.00000000000000000 ) ) ;
#216 = CARTESIAN_POINT ( 'NONE',  ( 6.682800415767838599E-14, -4.000000000000000000, 38.00000000000000000 ) ) ;
#217 = MANIFOLD_SOLID_BREP ( 'Corps-Déplacer/Copier1[2]', #56 ) ;
#218 = CC_DESIGN_PERSON_AND_ORGANIZATION_ASSIGNMENT ( #121, #226, ( #145 ) ) ;
#219 = DIRECTION ( 'NONE',  ( -4.275831445896958607E-31, -1.000000000000000000, -1.224646799147353207E-16 ) ) ;
#220 = COORDINATED_UNIVERSAL_TIME_OFFSET ( 1, 0, .AHEAD. ) ;
#221 = APPROVAL_ROLE ( '' ) ;
#222 = CARTESIAN_POINT ( 'NONE',  ( 2.765253220363762122E-13, 3.999999999999993339, 79.20000000000001705 ) ) ;
#223 = DIRECTION ( 'NONE',  ( -3.491481338843133355E-15, 1.224646799147353207E-16, -1.000000000000000000 ) ) ;
#224 = DIRECTION ( 'NONE',  ( 3.491481338843133355E-15, -1.224646799147353207E-16, 1.000000000000000000 ) ) ;
#225 = VECTOR ( 'NONE', #309, 1000.000000000000000 ) ;
#226 = PERSON_AND_ORGANIZATION_ROLE ( 'design_owner' ) ;
#227 = CALENDAR_DATE ( 2023, 31, 3 ) ;
#228 = EDGE_CURVE ( 'NONE', #205, #237, #29, .T. ) ;
#229 = DIRECTION ( 'NONE',  ( 4.275831445896958607E-31, 1.000000000000000000, 1.224646799147353207E-16 ) ) ;
#230 = AXIS2_PLACEMENT_3D ( 'NONE', #193, #28, #274 ) ;
#231 = CARTESIAN_POINT ( 'NONE',  ( 2.783627874196064970E-13, -3.200000000000013056, 80.00000000000000000 ) ) ;
#232 = ORIENTED_EDGE ( 'NONE', *, *, #39, .T. ) ;
#233 = PERSON_AND_ORGANIZATION ( #147, #54 ) ;
#234 = ORIENTED_EDGE ( 'NONE', *, *, #39, .F. ) ;
#235 = DIRECTION ( 'NONE',  ( -3.491481338843133355E-15, 1.224646799147353207E-16, -1.000000000000000000 ) ) ;
#236 = ORIENTED_EDGE ( 'NONE', *, *, #289, .F. ) ;
#237 = VERTEX_POINT ( 'NONE', #273 ) ;
#238 = ADVANCED_BREP_SHAPE_REPRESENTATION ( '372752', ( #101, #217, #230 ), #261 ) ;
#239 = CARTESIAN_POINT ( 'NONE',  ( 2.793185071074506684E-13, -9.797174393178826052E-15, 80.00000000000000000 ) ) ;
#240 = CC_DESIGN_PERSON_AND_ORGANIZATION_ASSIGNMENT ( #63, #43, ( #190 ) ) ;
#241 = DIRECTION ( 'NONE',  ( 0.000000000000000000, 1.000000000000000000, 0.000000000000000000 ) ) ;
#242 = UNCERTAINTY_MEASURE_WITH_UNIT (LENGTH_MEASURE( 1.000000000000000082E-05 ), #138, 'distance_accuracy_value', 'NONE');
#243 = ADVANCED_FACE ( 'NONE', ( #262 ), #107, .T. ) ;
#244 = CARTESIAN_POINT ( 'NONE',  ( 2.797103940831777906E-13, -3.200000000000013056, 80.00000000000000000 ) ) ;
#245 = DESIGN_CONTEXT ( 'detailed design', #297, 'design' ) ;
#246 = DIRECTION ( 'NONE',  ( -3.491481338843133355E-15, 1.224646799147353207E-16, -1.000000000000000000 ) ) ;
#247 = VECTOR ( 'NONE', #112, 1000.000000000000000 ) ;
#248 = EDGE_CURVE ( 'NONE', #161, #77, #52, .T. ) ;
#249 = DIRECTION ( 'NONE',  ( 4.275831445896958607E-31, 1.000000000000000000, 1.224646799147353207E-16 ) ) ;
#250 = DIRECTION ( 'NONE',  ( -3.491481338843133355E-15, 1.224646799147353207E-16, -1.000000000000000000 ) ) ;
#251 = CIRCLE ( 'NONE', #267, 3.999999999999995559 ) ;
#252 = CC_DESIGN_APPROVAL ( #42, ( #272 ) ) ;
#253 = CARTESIAN_POINT ( 'NONE',  ( 1.326762908760390423E-13, 3.999999999999991562, 38.00000000000000000 ) ) ;
#254 = DIRECTION ( 'NONE',  ( 0.000000000000000000, 1.000000000000000000, 0.000000000000000000 ) ) ;
#255 = LOCAL_TIME ( 9, 9, 8.000000000000000000, #98 ) ;
#256 = ORIENTED_EDGE ( 'NONE', *, *, #72, .F. ) ;
#257 = EDGE_LOOP ( 'NONE', ( #12, #302, #10, #104 ) ) ;
#258 = DIRECTION ( 'NONE',  ( -3.491481338843133355E-15, 1.224646799147353207E-16, -1.000000000000000000 ) ) ;
#259 = ORIENTED_EDGE ( 'NONE', *, *, #228, .F. ) ;
#260 = AXIS2_PLACEMENT_3D ( 'NONE', #239, #312, #293 ) ;
#261 =( GEOMETRIC_REPRESENTATION_CONTEXT ( 3 ) GLOBAL_UNCERTAINTY_ASSIGNED_CONTEXT ( ( #242 ) ) GLOBAL_UNIT_ASSIGNED_CONTEXT ( ( #138, #168, #50 ) ) REPRESENTATION_CONTEXT ( 'NONE', 'WORKASPACE' ) );
#262 = FACE_OUTER_BOUND ( 'NONE', #257, .T. ) ;
#263 = DATE_AND_TIME ( #83, #27 ) ;
#264 = VERTEX_POINT ( 'NONE', #34 ) ;
#265 = APPROVAL_DATE_TIME ( #292, #102 ) ;
#266 = LINE ( 'NONE', #244, #247 ) ;
#267 = AXIS2_PLACEMENT_3D ( 'NONE', #25, #246, #241 ) ;
#268 = APPROVAL_PERSON_ORGANIZATION ( #233, #42, #276 ) ;
#269 = CARTESIAN_POINT ( 'NONE',  ( 2.793185071074506684E-13, -9.797174393178826052E-15, 80.00000000000000000 ) ) ;
#270 = DIRECTION ( 'NONE',  ( -3.491481338843133355E-15, 1.224646799147353207E-16, -1.000000000000000000 ) ) ;
#271 = AXIS2_PLACEMENT_3D ( 'NONE', #91, #65, #69 ) ;
#272 = SECURITY_CLASSIFICATION ( '', '', #124 ) ;
#273 = CARTESIAN_POINT ( 'NONE',  ( 4.275662058086250086E-31, 3.999999999999990674, 1.224598284550174978E-16 ) ) ;
#274 = DIRECTION ( 'NONE',  ( 1.000000000000000000, 0.000000000000000000, 0.000000000000000000 ) ) ;
#275 = EDGE_CURVE ( 'NONE', #305, #161, #281, .T. ) ;
#276 = APPROVAL_ROLE ( '' ) ;
#277 = CARTESIAN_POINT ( 'NONE',  ( 4.898587196589387191E-16, -3.999999999999993339, -4.898587196589421703E-16 ) ) ;
#278 = CIRCLE ( 'NONE', #70, 4.000000000000002665 ) ;
#279 = FACE_OUTER_BOUND ( 'NONE', #110, .T. ) ;
#280 = SHAPE_DEFINITION_REPRESENTATION ( #192, #238 ) ;
#281 = LINE ( 'NONE', #133, #8 ) ;
#282 = DATE_AND_TIME ( #227, #123 ) ;
#283 = ORIENTED_EDGE ( 'NONE', *, *, #179, .F. ) ;
#284 = PERSON_AND_ORGANIZATION_ROLE ( 'design_supplier' ) ;
#285 = DIRECTION ( 'NONE',  ( -3.491481338843133355E-15, 1.224646799147353207E-16, -1.000000000000000000 ) ) ;
#286 = VERTEX_POINT ( 'NONE', #231 ) ;
#287 = ORIENTED_EDGE ( 'NONE', *, *, #149, .F. ) ;
#288 = ORIENTED_EDGE ( 'NONE', *, *, #61, .T. ) ;
#289 = EDGE_CURVE ( 'NONE', #305, #178, #278, .T. ) ;
#290 = AXIS2_PLACEMENT_3D ( 'NONE', #151, #169, #33 ) ;
#291 = EDGE_LOOP ( 'NONE', ( #256, #283 ) ) ;
#292 = DATE_AND_TIME ( #185, #79 ) ;
#293 = DIRECTION ( 'NONE',  ( 0.000000000000000000, 1.000000000000000000, 0.000000000000000000 ) ) ;
#294 = DIRECTION ( 'NONE',  ( 3.491481338843133355E-15, -1.224646799147353207E-16, 1.000000000000000000 ) ) ;
#295 = CYLINDRICAL_SURFACE ( 'NONE', #66, 3.999999999999993339 ) ;
#296 = DIRECTION ( 'NONE',  ( 0.000000000000000000, 1.000000000000000000, 0.000000000000000000 ) ) ;
#297 = APPLICATION_CONTEXT ( 'configuration controlled 3d designs of mechanical parts and assemblies' ) ;
#298 = APPROVAL_DATE_TIME ( #282, #42 ) ;
#299 = DIRECTION ( 'NONE',  ( 0.000000000000000000, 1.000000000000000000, 0.000000000000000000 ) ) ;
#300 = ORIENTED_EDGE ( 'NONE', *, *, #72, .T. ) ;
#301 = EDGE_CURVE ( 'NONE', #264, #178, #103, .T. ) ;
#302 = ORIENTED_EDGE ( 'NONE', *, *, #57, .T. ) ;
#303 = ORIENTED_EDGE ( 'NONE', *, *, #130, .F. ) ;
#304 = CARTESIAN_POINT ( 'NONE',  ( 1.326762908760390423E-13, -4.653657836759941941E-15, 38.00000000000000000 ) ) ;
#305 = VERTEX_POINT ( 'NONE', #129 ) ;
#306 = AXIS2_PLACEMENT_3D ( 'NONE', #308, #2, #296 ) ;
#307 = APPROVAL_ROLE ( '' ) ;
#308 = CARTESIAN_POINT ( 'NONE',  ( 2.765253220363762122E-13, -9.699202649247039195E-15, 79.20000000000001705 ) ) ;
#309 = DIRECTION ( 'NONE',  ( -3.491481338843133355E-15, 1.224646799147353207E-16, -1.000000000000000000 ) ) ;
#310 = CIRCLE ( 'NONE', #213, 3.999999999999990674 ) ;
#311 = ADVANCED_FACE ( 'NONE', ( #81 ), #11, .T. ) ;
#312 = DIRECTION ( 'NONE',  ( -3.491481338843133355E-15, 1.224646799147353207E-16, -1.000000000000000000 ) ) ;
#313 = PERSON_AND_ORGANIZATION ( #147, #54 ) ;
ENDSEC;
END-ISO-10303-21;
