ISO-10303-21;
HEADER;
FILE_DESCRIPTION (( 'STEP AP203' ),
    '1' );
FILE_NAME ('372751.step',
    '2023-03-31T07:09:08',
    ( '' ),
    ( '' ),
    'SwSTEP 2.0',
    'SolidWorks 2022',
    '' );
FILE_SCHEMA (( 'CONFIG_CONTROL_DESIGN' ));
ENDSEC;

DATA;
#1 = ORIENTED_EDGE ( 'NONE', *, *, #57, .F. ) ;
#2 = DIRECTION ( 'NONE',  ( 0.000000000000000000, 0.000000000000000000, 1.000000000000000000 ) ) ;
#3 = ORIENTED_EDGE ( 'NONE', *, *, #79, .T. ) ;
#4 = EDGE_CURVE ( 'NONE', #247, #184, #12, .T. ) ;
#5 = ORIENTED_EDGE ( 'NONE', *, *, #11, .F. ) ;
#6 = ADVANCED_FACE ( 'NONE', ( #167 ), #192, .F. ) ;
#7 = EDGE_LOOP ( 'NONE', ( #294, #108 ) ) ;
#8 = EDGE_LOOP ( 'NONE', ( #256, #305, #274, #172 ) ) ;
#9 = AXIS2_PLACEMENT_3D ( 'NONE', #121, #174, #48 ) ;
#10 = AXIS2_PLACEMENT_3D ( 'NONE', #255, #86, #41 ) ;
#11 = EDGE_CURVE ( 'NONE', #171, #129, #251, .T. ) ;
#12 = LINE ( 'NONE', #88, #96 ) ;
#13 = ORIENTED_EDGE ( 'NONE', *, *, #45, .F. ) ;
#14 = CC_DESIGN_APPROVAL ( #168, ( #263 ) ) ;
#15 = CARTESIAN_POINT ( 'NONE',  ( 8.379555213223520053E-14, -2.939152317953647894E-15, 24.00000000000000000 ) ) ;
#16 = CONICAL_SURFACE ( 'NONE', #259, 3.199999999999997957, 0.7853981633974467247 ) ;
#17 = PRODUCT_DEFINITION_FORMATION_WITH_SPECIFIED_SOURCE ( 'ANY', '', #112, .NOT_KNOWN. ) ;
#18 = DIRECTION ( 'NONE',  ( -3.491481338843133355E-15, 1.224646799147353207E-16, -1.000000000000000000 ) ) ;
#19 = APPLICATION_CONTEXT ( 'configuration controlled 3d designs of mechanical parts and assemblies' ) ;
#20 = ADVANCED_FACE ( 'NONE', ( #194 ), #215, .F. ) ;
#21 = DIRECTION ( 'NONE',  ( 0.000000000000000000, 1.000000000000000000, 0.000000000000000000 ) ) ;
#22 = EDGE_CURVE ( 'NONE', #105, #228, #144, .T. ) ;
#23 = PLANE ( 'NONE',  #68 ) ;
#24 = CIRCLE ( 'NONE', #175, 3.999999999999997335 ) ;
#25 = DIRECTION ( 'NONE',  ( 4.275831445896958607E-31, 1.000000000000000000, 1.224646799147352961E-16 ) ) ;
#26 = FACE_OUTER_BOUND ( 'NONE', #283, .T. ) ;
#27 = AXIS2_PLACEMENT_3D ( 'NONE', #199, #284, #125 ) ;
#28 =( LENGTH_UNIT ( ) NAMED_UNIT ( * ) SI_UNIT ( .MILLI., .METRE. ) );
#29 = APPROVAL_ROLE ( '' ) ;
#30 = APPROVAL_DATE_TIME ( #265, #107 ) ;
#31 = CALENDAR_DATE ( 2023, 31, 3 ) ;
#32 = ORIENTED_EDGE ( 'NONE', *, *, #106, .F. ) ;
#33 = DIRECTION ( 'NONE',  ( -2.468850131082269288E-15, 0.7071067811865465735, -0.7071067811865485719 ) ) ;
#34 = DIRECTION ( 'NONE',  ( -3.491481338843133355E-15, 1.224646799147353207E-16, -1.000000000000000000 ) ) ;
#35 = EDGE_CURVE ( 'NONE', #228, #211, #222, .T. ) ;
#36 = CARTESIAN_POINT ( 'NONE',  ( 0.000000000000000000, 0.000000000000000000, 0.000000000000000000 ) ) ;
#37 = CIRCLE ( 'NONE', #43, 3.999999999999993339 ) ;
#38 = CIRCLE ( 'NONE', #158, 3.999999999999993339 ) ;
#39 = SHAPE_DEFINITION_REPRESENTATION ( #212, #257 ) ;
#40 = ORIENTED_EDGE ( 'NONE', *, *, #45, .T. ) ;
#41 = DIRECTION ( 'NONE',  ( 4.275831445896958607E-31, 1.000000000000000000, 1.224646799147353207E-16 ) ) ;
#42 = CARTESIAN_POINT ( 'NONE',  ( -1.282757270704399626E-30, 4.499306836254344228E-32, -3.673962843316894584E-16 ) ) ;
#43 = AXIS2_PLACEMENT_3D ( 'NONE', #261, #178, #21 ) ;
#44 = CLOSED_SHELL ( 'NONE', ( #206, #89, #6, #293, #63, #20 ) ) ;
#45 = EDGE_CURVE ( 'NONE', #211, #228, #38, .T. ) ;
#46 = CARTESIAN_POINT ( 'NONE',  ( 2.094888803305880013E-13, -7.347880794884118356E-15, 60.00000000000000000 ) ) ;
#47 = CYLINDRICAL_SURFACE ( 'NONE', #27, 3.999999999999991562 ) ;
#48 = DIRECTION ( 'NONE',  ( 0.000000000000000000, 1.000000000000000000, 0.000000000000000000 ) ) ;
#49 = LOCAL_TIME ( 9, 9, 8.000000000000000000, #58 ) ;
#50 = CARTESIAN_POINT ( 'NONE',  ( 0.000000000000000000, 0.000000000000000000, 0.000000000000000000 ) ) ;
#51 = UNCERTAINTY_MEASURE_WITH_UNIT (LENGTH_MEASURE( 1.000000000000000082E-05 ), #28, 'distance_accuracy_value', 'NONE');
#52 = PERSON_AND_ORGANIZATION_ROLE ( 'classification_officer' ) ;
#53 = AXIS2_PLACEMENT_3D ( 'NONE', #46, #182, #266 ) ;
#54 = DATE_TIME_ROLE ( 'classification_date' ) ;
#55 = VECTOR ( 'NONE', #34, 1000.000000000000000 ) ;
#56 = ORIENTED_EDGE ( 'NONE', *, *, #131, .T. ) ;
#57 = EDGE_CURVE ( 'NONE', #275, #184, #308, .T. ) ;
#58 = COORDINATED_UNIVERSAL_TIME_OFFSET ( 1, 0, .AHEAD. ) ;
#59 = PERSON_AND_ORGANIZATION_ROLE ( 'design_supplier' ) ;
#60 = EDGE_LOOP ( 'NONE', ( #64, #69 ) ) ;
#61 = LOCAL_TIME ( 9, 9, 8.000000000000000000, #154 ) ;
#62 = DIRECTION ( 'NONE',  ( 0.000000000000000000, 1.000000000000000000, 0.000000000000000000 ) ) ;
#63 = ADVANCED_FACE ( 'NONE', ( #116 ), #16, .T. ) ;
#64 = ORIENTED_EDGE ( 'NONE', *, *, #94, .F. ) ;
#65 = DATE_AND_TIME ( #276, #267 ) ;
#66 = FACE_OUTER_BOUND ( 'NONE', #114, .T. ) ;
#67 = ORIENTED_EDGE ( 'NONE', *, *, #166, .F. ) ;
#68 = AXIS2_PLACEMENT_3D ( 'NONE', #289, #258, #99 ) ;
#69 = ORIENTED_EDGE ( 'NONE', *, *, #302, .F. ) ;
#70 = CARTESIAN_POINT ( 'NONE',  ( 2.066956952595134694E-13, -7.249909050952329922E-15, 59.19999999999999574 ) ) ;
#71 = DIRECTION ( 'NONE',  ( 0.000000000000000000, 1.000000000000000000, 0.000000000000000000 ) ) ;
#72 = CIRCLE ( 'NONE', #217, 3.199999999999997957 ) ;
#73 = CARTESIAN_POINT ( 'NONE',  ( 0.000000000000000000, 0.000000000000000000, 0.000000000000000000 ) ) ;
#74 = DIRECTION ( 'NONE',  ( 0.000000000000000000, 1.000000000000000000, 0.000000000000000000 ) ) ;
#75 = CARTESIAN_POINT ( 'NONE',  ( 4.238763478577652192E-14, -3.999999999999990674, -8.572550039907775680E-16 ) ) ;
#76 = AXIS2_PLACEMENT_3D ( 'NONE', #50, #93, #260 ) ;
#77 = APPLICATION_PROTOCOL_DEFINITION ( 'international standard', 'config_control_design', 1994, #19 ) ;
#78 = PERSON_AND_ORGANIZATION ( #91, #141 ) ;
#79 = EDGE_CURVE ( 'NONE', #90, #105, #165, .T. ) ;
#80 = SECURITY_CLASSIFICATION_LEVEL ( 'unclassified' ) ;
#81 = ORIENTED_EDGE ( 'NONE', *, *, #166, .T. ) ;
#82 = PERSON_AND_ORGANIZATION ( #91, #141 ) ;
#83 =( NAMED_UNIT ( * ) SI_UNIT ( $, .STERADIAN. ) SOLID_ANGLE_UNIT ( ) );
#84 = ORIENTED_EDGE ( 'NONE', *, *, #302, .T. ) ;
#85 = LOCAL_TIME ( 9, 9, 8.000000000000000000, #225 ) ;
#86 = DIRECTION ( 'NONE',  ( -3.491481338843133355E-15, 1.224646799147353207E-16, -1.000000000000000000 ) ) ;
#87 = ORIENTED_EDGE ( 'NONE', *, *, #227, .T. ) ;
#88 = CARTESIAN_POINT ( 'NONE',  ( 1.710332578358779939E-30, 3.999999999999991562, 4.898587196589401982E-16 ) ) ;
#89 = ADVANCED_FACE ( 'NONE', ( #66 ), #169, .T. ) ;
#90 = VERTEX_POINT ( 'NONE', #201 ) ;
#91 = PERSON ( 'UNSPECIFIED', 'UNSPECIFIED', 'UNSPECIFIED', ('UNSPECIFIED'), ('UNSPECIFIED'), ('UNSPECIFIED') ) ;
#92 = DIRECTION ( 'NONE',  ( 4.275831445896958607E-31, 1.000000000000000000, 1.224646799147353207E-16 ) ) ;
#93 = DIRECTION ( 'NONE',  ( -3.491481338843133355E-15, 1.224646799147353207E-16, -1.000000000000000000 ) ) ;
#94 = EDGE_CURVE ( 'NONE', #90, #171, #72, .T. ) ;
#95 = CARTESIAN_POINT ( 'NONE',  ( 1.457354824155332124E-13, -4.000000000000004441, 59.19999999999999574 ) ) ;
#96 = VECTOR ( 'NONE', #213, 1000.000000000000000 ) ;
#97 = CARTESIAN_POINT ( 'NONE',  ( 4.238763478577651561E-14, -3.999999999999995559, 24.00000000000000000 ) ) ;
#98 = PLANE ( 'NONE',  #179 ) ;
#99 = DIRECTION ( 'NONE',  ( -4.275831445896958607E-31, -1.000000000000000000, -1.224646799147353207E-16 ) ) ;
#100 = ADVANCED_FACE ( 'NONE', ( #202 ), #223, .T. ) ;
#101 = AXIS2_PLACEMENT_3D ( 'NONE', #241, #220, #311 ) ;
#102 = DATE_TIME_ROLE ( 'creation_date' ) ;
#103 = CC_DESIGN_PERSON_AND_ORGANIZATION_ASSIGNMENT ( #163, #248, ( #137 ) ) ;
#104 =( NAMED_UNIT ( * ) PLANE_ANGLE_UNIT ( ) SI_UNIT ( $, .RADIAN. ) );
#105 = VERTEX_POINT ( 'NONE', #153 ) ;
#106 = EDGE_CURVE ( 'NONE', #129, #105, #135, .T. ) ;
#107 = APPROVAL ( #161, 'UNSPECIFIED' ) ;
#108 = ORIENTED_EDGE ( 'NONE', *, *, #57, .T. ) ;
#109 = LOCAL_TIME ( 9, 9, 8.000000000000000000, #249 ) ;
#110 = DATE_AND_TIME ( #136, #49 ) ;
#111 = EDGE_LOOP ( 'NONE', ( #67, #253, #250, #13 ) ) ;
#112 = PRODUCT ( '372751', '372751', '', ( #291 ) ) ;
#113 = MANIFOLD_SOLID_BREP ( 'Corps-Déplacer/Copier1[2]', #188 ) ;
#114 = EDGE_LOOP ( 'NONE', ( #156, #81, #270, #160 ) ) ;
#115 = MANIFOLD_SOLID_BREP ( 'Corps-Déplacer/Copier1[1]', #44 ) ;
#116 = FACE_OUTER_BOUND ( 'NONE', #120, .T. ) ;
#117 = ORIENTED_EDGE ( 'NONE', *, *, #252, .T. ) ;
#118 = DIRECTION ( 'NONE',  ( -2.382254525458720625E-15, -0.7071067811865463515, -0.7071067811865487940 ) ) ;
#119 = AXIS2_PLACEMENT_3D ( 'NONE', #139, #234, #92 ) ;
#120 = EDGE_LOOP ( 'NONE', ( #5, #84, #3, #32 ) ) ;
#121 = CARTESIAN_POINT ( 'NONE',  ( 8.379555213223520053E-14, -2.939152317953647894E-15, 24.00000000000000000 ) ) ;
#122 = DIRECTION ( 'NONE',  ( -4.275831445896958607E-31, -1.000000000000000000, -1.224646799147353207E-16 ) ) ;
#123 = FACE_OUTER_BOUND ( 'NONE', #7, .T. ) ;
#124 = CARTESIAN_POINT ( 'NONE',  ( 8.379555213223520053E-14, 3.999999999999990674, 24.00000000000000000 ) ) ;
#125 = DIRECTION ( 'NONE',  ( 4.275831445896958607E-31, 1.000000000000000000, 1.224646799147352961E-16 ) ) ;
#126 = EDGE_CURVE ( 'NONE', #105, #129, #24, .T. ) ;
#127 = APPROVAL_STATUS ( 'not_yet_approved' ) ;
#128 = PERSON_AND_ORGANIZATION ( #91, #141 ) ;
#129 = VERTEX_POINT ( 'NONE', #95 ) ;
#130 = CC_DESIGN_PERSON_AND_ORGANIZATION_ASSIGNMENT ( #78, #52, ( #263 ) ) ;
#131 = EDGE_CURVE ( 'NONE', #209, #247, #37, .T. ) ;
#132 = COORDINATED_UNIVERSAL_TIME_OFFSET ( 1, 0, .AHEAD. ) ;
#133 = PERSON_AND_ORGANIZATION_ROLE ( 'creator' ) ;
#134 = ORIENTED_EDGE ( 'NONE', *, *, #4, .T. ) ;
#135 = CIRCLE ( 'NONE', #101, 3.999999999999997335 ) ;
#136 = CALENDAR_DATE ( 2023, 31, 3 ) ;
#137 = PRODUCT_DEFINITION ( 'UNKNOWN', '', #17, #231 ) ;
#138 = DIRECTION ( 'NONE',  ( -3.491481338843133355E-15, 1.224646799147353207E-16, -1.000000000000000000 ) ) ;
#139 = CARTESIAN_POINT ( 'NONE',  ( -1.282757270704399626E-30, 4.499306836254344228E-32, -3.673962843316894584E-16 ) ) ;
#140 = APPLICATION_CONTEXT ( 'configuration controlled 3d designs of mechanical parts and assemblies' ) ;
#141 = ORGANIZATION ( 'UNSPECIFIED', 'UNSPECIFIED', '' ) ;
#142 = AXIS2_PLACEMENT_3D ( 'NONE', #216, #279, #303 ) ;
#143 = DIRECTION ( 'NONE',  ( -3.491481338843133355E-15, 1.224646799147353207E-16, -1.000000000000000000 ) ) ;
#144 = LINE ( 'NONE', #189, #55 ) ;
#145 = DIRECTION ( 'NONE',  ( 3.491481338843133355E-15, -1.224646799147353207E-16, 1.000000000000000000 ) ) ;
#146 = DIRECTION ( 'NONE',  ( -3.491481338843133355E-15, 1.224646799147353207E-16, -1.000000000000000000 ) ) ;
#147 = AXIS2_PLACEMENT_3D ( 'NONE', #42, #146, #221 ) ;
#148 = CARTESIAN_POINT ( 'NONE',  ( -6.413786353521998128E-31, 2.249653418127172114E-32, -1.836981421658447292E-16 ) ) ;
#149 = DIRECTION ( 'NONE',  ( -3.491481338843133355E-15, 1.224646799147353207E-16, -1.000000000000000000 ) ) ;
#150 = ADVANCED_FACE ( 'NONE', ( #244 ), #23, .T. ) ;
#151 = DIRECTION ( 'NONE',  ( -3.491481338843133355E-15, 1.224646799147353207E-16, -1.000000000000000000 ) ) ;
#152 = CIRCLE ( 'NONE', #9, 3.999999999999993339 ) ;
#153 = CARTESIAN_POINT ( 'NONE',  ( 2.066956952595134694E-13, 3.999999999999990674, 59.19999999999999574 ) ) ;
#154 = COORDINATED_UNIVERSAL_TIME_OFFSET ( 1, 0, .AHEAD. ) ;
#155 = ADVANCED_FACE ( 'NONE', ( #26 ), #47, .T. ) ;
#156 = ORIENTED_EDGE ( 'NONE', *, *, #126, .T. ) ;
#157 = CONICAL_SURFACE ( 'NONE', #185, 3.199999999999997957, 0.7853981633974467247 ) ;
#158 = AXIS2_PLACEMENT_3D ( 'NONE', #15, #138, #62 ) ;
#159 = APPROVAL_STATUS ( 'not_yet_approved' ) ;
#160 = ORIENTED_EDGE ( 'NONE', *, *, #22, .F. ) ;
#161 = APPROVAL_STATUS ( 'not_yet_approved' ) ;
#162 = ORIENTED_EDGE ( 'NONE', *, *, #227, .F. ) ;
#163 = PERSON_AND_ORGANIZATION ( #91, #141 ) ;
#164 = VECTOR ( 'NONE', #33, 1000.000000000000000 ) ;
#165 = LINE ( 'NONE', #191, #164 ) ;
#166 = EDGE_CURVE ( 'NONE', #129, #211, #286, .T. ) ;
#167 = FACE_OUTER_BOUND ( 'NONE', #238, .T. ) ;
#168 = APPROVAL ( #159, 'UNSPECIFIED' ) ;
#169 = CYLINDRICAL_SURFACE ( 'NONE', #170, 3.999999999999994671 ) ;
#170 = AXIS2_PLACEMENT_3D ( 'NONE', #36, #143, #237 ) ;
#171 = VERTEX_POINT ( 'NONE', #288 ) ;
#172 = ORIENTED_EDGE ( 'NONE', *, *, #79, .F. ) ;
#173 = DIRECTION ( 'NONE',  ( -3.491481338843133355E-15, 1.224646799147353207E-16, -1.000000000000000000 ) ) ;
#174 = DIRECTION ( 'NONE',  ( -3.491481338843133355E-15, 1.224646799147353207E-16, -1.000000000000000000 ) ) ;
#175 = AXIS2_PLACEMENT_3D ( 'NONE', #70, #149, #307 ) ;
#176 = DIRECTION ( 'NONE',  ( -3.491481338843133355E-15, 1.224646799147353207E-16, -1.000000000000000000 ) ) ;
#177 = CARTESIAN_POINT ( 'NONE',  ( 2.094888803305880013E-13, -7.347880794884118356E-15, 60.00000000000000000 ) ) ;
#178 = DIRECTION ( 'NONE',  ( -3.491481338843133355E-15, 1.224646799147353207E-16, -1.000000000000000000 ) ) ;
#179 = AXIS2_PLACEMENT_3D ( 'NONE', #148, #242, #122 ) ;
#180 = PERSON_AND_ORGANIZATION_ROLE ( 'design_owner' ) ;
#181 = CC_DESIGN_DATE_AND_TIME_ASSIGNMENT ( #204, #54, ( #263 ) ) ;
#182 = DIRECTION ( 'NONE',  ( -3.491481338843133355E-15, 1.224646799147353207E-16, -1.000000000000000000 ) ) ;
#183 = DATE_AND_TIME ( #31, #109 ) ;
#184 = VERTEX_POINT ( 'NONE', #243 ) ;
#185 = AXIS2_PLACEMENT_3D ( 'NONE', #177, #18, #74 ) ;
#186 = CALENDAR_DATE ( 2023, 31, 3 ) ;
#187 = APPROVAL_PERSON_ORGANIZATION ( #312, #254, #273 ) ;
#188 = CLOSED_SHELL ( 'NONE', ( #155, #190, #100, #150 ) ) ;
#189 = CARTESIAN_POINT ( 'NONE',  ( 1.710332578358781341E-30, 3.999999999999994671, 4.898587196589406912E-16 ) ) ;
#190 = ADVANCED_FACE ( 'NONE', ( #123 ), #98, .F. ) ;
#191 = CARTESIAN_POINT ( 'NONE',  ( 2.094888803305880013E-13, 3.199999999999990408, 60.00000000000000000 ) ) ;
#192 = PLANE ( 'NONE',  #200 ) ;
#193 = AXIS2_PLACEMENT_3D ( 'NONE', #296, #2, #207 ) ;
#194 = FACE_OUTER_BOUND ( 'NONE', #60, .T. ) ;
#195 = CARTESIAN_POINT ( 'NONE',  ( 2.094888803305880013E-13, -7.347880794884118356E-15, 60.00000000000000000 ) ) ;
#196 = CC_DESIGN_PERSON_AND_ORGANIZATION_ASSIGNMENT ( #82, #180, ( #112 ) ) ;
#197 = CARTESIAN_POINT ( 'NONE',  ( 4.898587196589385219E-16, -3.999999999999991562, -4.898587196589419731E-16 ) ) ;
#198 = CIRCLE ( 'NONE', #53, 3.199999999999997957 ) ;
#199 = CARTESIAN_POINT ( 'NONE',  ( 0.000000000000000000, 0.000000000000000000, 0.000000000000000000 ) ) ;
#200 = AXIS2_PLACEMENT_3D ( 'NONE', #299, #145, #218 ) ;
#201 = CARTESIAN_POINT ( 'NONE',  ( 2.094888803305880013E-13, 3.199999999999990408, 60.00000000000000000 ) ) ;
#202 = FACE_OUTER_BOUND ( 'NONE', #304, .T. ) ;
#203 = APPROVAL_ROLE ( '' ) ;
#204 = DATE_AND_TIME ( #313, #61 ) ;
#205 = ORIENTED_EDGE ( 'NONE', *, *, #35, .T. ) ;
#206 = ADVANCED_FACE ( 'NONE', ( #224 ), #157, .T. ) ;
#207 = DIRECTION ( 'NONE',  ( 1.000000000000000000, 0.000000000000000000, 0.000000000000000000 ) ) ;
#208 = EDGE_CURVE ( 'NONE', #184, #275, #287, .T. ) ;
#209 = VERTEX_POINT ( 'NONE', #97 ) ;
#210 = VECTOR ( 'NONE', #151, 1000.000000000000000 ) ;
#211 = VERTEX_POINT ( 'NONE', #262 ) ;
#212 = PRODUCT_DEFINITION_SHAPE ( 'NONE', 'NONE',  #137 ) ;
#213 = DIRECTION ( 'NONE',  ( -3.491481338843133355E-15, 1.224646799147353207E-16, -1.000000000000000000 ) ) ;
#214 = DIRECTION ( 'NONE',  ( -3.491481338843133355E-15, 1.224646799147353207E-16, -1.000000000000000000 ) ) ;
#215 = PLANE ( 'NONE',  #10 ) ;
#216 = CARTESIAN_POINT ( 'NONE',  ( 8.379555213223520053E-14, -2.939152317953647894E-15, 24.00000000000000000 ) ) ;
#217 = AXIS2_PLACEMENT_3D ( 'NONE', #245, #173, #71 ) ;
#218 = DIRECTION ( 'NONE',  ( -4.275831445896958607E-31, -1.000000000000000000, -1.224646799147353207E-16 ) ) ;
#219 = LINE ( 'NONE', #197, #235 ) ;
#220 = DIRECTION ( 'NONE',  ( -3.491481338843133355E-15, 1.224646799147353207E-16, -1.000000000000000000 ) ) ;
#221 = DIRECTION ( 'NONE',  ( 4.275831445896958607E-31, 1.000000000000000000, 1.224646799147353207E-16 ) ) ;
#222 = CIRCLE ( 'NONE', #142, 3.999999999999993339 ) ;
#223 = CYLINDRICAL_SURFACE ( 'NONE', #300, 3.999999999999991562 ) ;
#224 = FACE_OUTER_BOUND ( 'NONE', #8, .T. ) ;
#225 = COORDINATED_UNIVERSAL_TIME_OFFSET ( 1, 0, .AHEAD. ) ;
#226 = APPROVAL_PERSON_ORGANIZATION ( #230, #107, #203 ) ;
#227 = EDGE_CURVE ( 'NONE', #247, #209, #152, .T. ) ;
#228 = VERTEX_POINT ( 'NONE', #124 ) ;
#229 = CC_DESIGN_APPROVAL ( #107, ( #17 ) ) ;
#230 = PERSON_AND_ORGANIZATION ( #91, #141 ) ;
#231 = DESIGN_CONTEXT ( 'detailed design', #140, 'design' ) ;
#232 = PRODUCT_RELATED_PRODUCT_CATEGORY ( 'detail', '', ( #112 ) ) ;
#233 = ORIENTED_EDGE ( 'NONE', *, *, #208, .F. ) ;
#234 = DIRECTION ( 'NONE',  ( -3.491481338843133355E-15, 1.224646799147353207E-16, -1.000000000000000000 ) ) ;
#235 = VECTOR ( 'NONE', #290, 1000.000000000000000 ) ;
#236 = APPROVAL_DATE_TIME ( #65, #168 ) ;
#237 = DIRECTION ( 'NONE',  ( 4.275831445896959482E-31, 1.000000000000000000, 1.224646799147353454E-16 ) ) ;
#238 = EDGE_LOOP ( 'NONE', ( #205, #40 ) ) ;
#239 = ORIENTED_EDGE ( 'NONE', *, *, #4, .F. ) ;
#240 = APPROVAL_PERSON_ORGANIZATION ( #268, #168, #29 ) ;
#241 = CARTESIAN_POINT ( 'NONE',  ( 2.066956952595134694E-13, -7.249909050952329922E-15, 59.19999999999999574 ) ) ;
#242 = DIRECTION ( 'NONE',  ( 3.491481338843133355E-15, -1.224646799147353207E-16, 1.000000000000000000 ) ) ;
#243 = CARTESIAN_POINT ( 'NONE',  ( 4.275753076543798760E-31, 3.999999999999990674, 1.224624353272506412E-16 ) ) ;
#244 = FACE_OUTER_BOUND ( 'NONE', #277, .T. ) ;
#245 = CARTESIAN_POINT ( 'NONE',  ( 2.094888803305880013E-13, -7.347880794884118356E-15, 60.00000000000000000 ) ) ;
#246 = APPLICATION_PROTOCOL_DEFINITION ( 'international standard', 'config_control_design', 1994, #140 ) ;
#247 = VERTEX_POINT ( 'NONE', #310 ) ;
#248 = PERSON_AND_ORGANIZATION_ROLE ( 'creator' ) ;
#249 = COORDINATED_UNIVERSAL_TIME_OFFSET ( 1, 0, .AHEAD. ) ;
#250 = ORIENTED_EDGE ( 'NONE', *, *, #22, .T. ) ;
#251 = LINE ( 'NONE', #280, #271 ) ;
#252 = EDGE_CURVE ( 'NONE', #209, #275, #219, .T. ) ;
#253 = ORIENTED_EDGE ( 'NONE', *, *, #106, .T. ) ;
#254 = APPROVAL ( #127, 'UNSPECIFIED' ) ;
#255 = CARTESIAN_POINT ( 'NONE',  ( 2.094888803305880013E-13, 2.399615652258959583E-32, 60.00000000000000000 ) ) ;
#256 = ORIENTED_EDGE ( 'NONE', *, *, #94, .T. ) ;
#257 = ADVANCED_BREP_SHAPE_REPRESENTATION ( '372751', ( #115, #113, #193 ), #269 ) ;
#258 = DIRECTION ( 'NONE',  ( 3.491481338843133355E-15, -1.224646799147353207E-16, 1.000000000000000000 ) ) ;
#259 = AXIS2_PLACEMENT_3D ( 'NONE', #195, #214, #301 ) ;
#260 = DIRECTION ( 'NONE',  ( 4.275831445896959482E-31, 1.000000000000000000, 1.224646799147353454E-16 ) ) ;
#261 = CARTESIAN_POINT ( 'NONE',  ( 8.379555213223520053E-14, -2.939152317953647894E-15, 24.00000000000000000 ) ) ;
#262 = CARTESIAN_POINT ( 'NONE',  ( 1.457354824155332629E-13, -3.999999999999995559, 24.00000000000000000 ) ) ;
#263 = SECURITY_CLASSIFICATION ( '', '', #80 ) ;
#264 = FACE_OUTER_BOUND ( 'NONE', #111, .T. ) ;
#265 = DATE_AND_TIME ( #186, #85 ) ;
#266 = DIRECTION ( 'NONE',  ( 0.000000000000000000, 1.000000000000000000, 0.000000000000000000 ) ) ;
#267 = LOCAL_TIME ( 9, 9, 8.000000000000000000, #132 ) ;
#268 = PERSON_AND_ORGANIZATION ( #91, #141 ) ;
#269 =( GEOMETRIC_REPRESENTATION_CONTEXT ( 3 ) GLOBAL_UNCERTAINTY_ASSIGNED_CONTEXT ( ( #51 ) ) GLOBAL_UNIT_ASSIGNED_CONTEXT ( ( #28, #104, #83 ) ) REPRESENTATION_CONTEXT ( 'NONE', 'WORKASPACE' ) );
#270 = ORIENTED_EDGE ( 'NONE', *, *, #35, .F. ) ;
#271 = VECTOR ( 'NONE', #118, 1000.000000000000000 ) ;
#272 = ORIENTED_EDGE ( 'NONE', *, *, #131, .F. ) ;
#273 = APPROVAL_ROLE ( '' ) ;
#274 = ORIENTED_EDGE ( 'NONE', *, *, #126, .F. ) ;
#275 = VERTEX_POINT ( 'NONE', #75 ) ;
#276 = CALENDAR_DATE ( 2023, 31, 3 ) ;
#277 = EDGE_LOOP ( 'NONE', ( #162, #272 ) ) ;
#278 = CC_DESIGN_DATE_AND_TIME_ASSIGNMENT ( #110, #102, ( #137 ) ) ;
#279 = DIRECTION ( 'NONE',  ( -3.491481338843133355E-15, 1.224646799147353207E-16, -1.000000000000000000 ) ) ;
#280 = CARTESIAN_POINT ( 'NONE',  ( 2.098807673063151487E-13, -3.200000000000005507, 60.00000000000000000 ) ) ;
#281 = CC_DESIGN_PERSON_AND_ORGANIZATION_ASSIGNMENT ( #128, #133, ( #17 ) ) ;
#282 = CC_DESIGN_APPROVAL ( #254, ( #137 ) ) ;
#283 = EDGE_LOOP ( 'NONE', ( #87, #117, #233, #239 ) ) ;
#284 = DIRECTION ( 'NONE',  ( -3.491481338843133355E-15, 1.224646799147353207E-16, -1.000000000000000000 ) ) ;
#285 = CC_DESIGN_PERSON_AND_ORGANIZATION_ASSIGNMENT ( #292, #59, ( #17 ) ) ;
#286 = LINE ( 'NONE', #309, #210 ) ;
#287 = CIRCLE ( 'NONE', #147, 3.999999999999990674 ) ;
#288 = CARTESIAN_POINT ( 'NONE',  ( 2.085331606427437794E-13, -3.200000000000005507, 60.00000000000000000 ) ) ;
#289 = CARTESIAN_POINT ( 'NONE',  ( 8.379555213223520053E-14, 2.999519565323706458E-32, 24.00000000000000000 ) ) ;
#290 = DIRECTION ( 'NONE',  ( -3.491481338843133355E-15, 1.224646799147353207E-16, -1.000000000000000000 ) ) ;
#291 = MECHANICAL_CONTEXT ( 'NONE', #19, 'mechanical' ) ;
#292 = PERSON_AND_ORGANIZATION ( #91, #141 ) ;
#293 = ADVANCED_FACE ( 'NONE', ( #264 ), #306, .T. ) ;
#294 = ORIENTED_EDGE ( 'NONE', *, *, #208, .T. ) ;
#295 = CC_DESIGN_SECURITY_CLASSIFICATION ( #263, ( #17 ) ) ;
#296 = CARTESIAN_POINT ( 'NONE',  ( 0.000000000000000000, 0.000000000000000000, 0.000000000000000000 ) ) ;
#297 = APPROVAL_DATE_TIME ( #183, #254 ) ;
#298 = ORIENTED_EDGE ( 'NONE', *, *, #252, .F. ) ;
#299 = CARTESIAN_POINT ( 'NONE',  ( 8.379555213223520053E-14, 2.999519565323706458E-32, 24.00000000000000000 ) ) ;
#300 = AXIS2_PLACEMENT_3D ( 'NONE', #73, #176, #25 ) ;
#301 = DIRECTION ( 'NONE',  ( 0.000000000000000000, 1.000000000000000000, 0.000000000000000000 ) ) ;
#302 = EDGE_CURVE ( 'NONE', #171, #90, #198, .T. ) ;
#303 = DIRECTION ( 'NONE',  ( 0.000000000000000000, 1.000000000000000000, 0.000000000000000000 ) ) ;
#304 = EDGE_LOOP ( 'NONE', ( #298, #56, #134, #1 ) ) ;
#305 = ORIENTED_EDGE ( 'NONE', *, *, #11, .T. ) ;
#306 = CYLINDRICAL_SURFACE ( 'NONE', #76, 3.999999999999994671 ) ;
#307 = DIRECTION ( 'NONE',  ( 0.000000000000000000, 1.000000000000000000, 0.000000000000000000 ) ) ;
#308 = CIRCLE ( 'NONE', #119, 3.999999999999990674 ) ;
#309 = CARTESIAN_POINT ( 'NONE',  ( 4.898587196589389163E-16, -3.999999999999994671, -4.898587196589422689E-16 ) ) ;
#310 = CARTESIAN_POINT ( 'NONE',  ( 8.379555213223520053E-14, 3.999999999999990674, 24.00000000000000000 ) ) ;
#311 = DIRECTION ( 'NONE',  ( 0.000000000000000000, 1.000000000000000000, 0.000000000000000000 ) ) ;
#312 = PERSON_AND_ORGANIZATION ( #91, #141 ) ;
#313 = CALENDAR_DATE ( 2023, 31, 3 ) ;
ENDSEC;
END-ISO-10303-21;
