ISO-10303-21;
HEADER;
FILE_DESCRIPTION (( 'STEP AP203' ),
    '1' );
FILE_NAME ('372750.step',
    '2023-03-31T07:09:07',
    ( '' ),
    ( '' ),
    'SwSTEP 2.0',
    'SolidWorks 2022',
    '' );
FILE_SCHEMA (( 'CONFIG_CONTROL_DESIGN' ));
ENDSEC;

DATA;
#1 = CARTESIAN_POINT ( 'NONE',  ( -6.413839710158237013E-31, 0.000000000000000000, -1.836996703606440502E-16 ) ) ;
#2 = DATE_AND_TIME ( #90, #59 ) ;
#3 = APPROVAL ( #133, 'UNSPECIFIED' ) ;
#4 = PERSON_AND_ORGANIZATION ( #222, #314 ) ;
#5 = APPROVAL_PERSON_ORGANIZATION ( #175, #311, #142 ) ;
#6 = DIRECTION ( 'NONE',  ( 3.372511997194914833E-15, -0.2588190451025216277, 0.9659258262890679791 ) ) ;
#7 = AXIS2_PLACEMENT_3D ( 'NONE', #128, #203, #238 ) ;
#8 = CARTESIAN_POINT ( 'NONE',  ( 2.793185071074506684E-13, -9.797174393178826052E-15, 80.00000000000000000 ) ) ;
#9 = EDGE_CURVE ( 'NONE', #20, #357, #255, .T. ) ;
#10 = DIRECTION ( 'NONE',  ( -3.491481338843133355E-15, 1.224646799147353207E-16, -1.000000000000000000 ) ) ;
#11 = CC_DESIGN_PERSON_AND_ORGANIZATION_ASSIGNMENT ( #310, #114, ( #103 ) ) ;
#12 = EDGE_CURVE ( 'NONE', #55, #194, #138, .T. ) ;
#13 = CARTESIAN_POINT ( 'NONE',  ( 5.273961412239120577E-14, 2.999999999999993783, 30.00000000000000000 ) ) ;
#14 = CIRCLE ( 'NONE', #285, 4.000000000000002665 ) ;
#15 = DIRECTION ( 'NONE',  ( 0.000000000000000000, 1.000000000000000000, 0.000000000000000000 ) ) ;
#16 = VECTOR ( 'NONE', #263, 1000.000000000000000 ) ;
#17 = DATE_AND_TIME ( #97, #121 ) ;
#18 = ORIENTED_EDGE ( 'NONE', *, *, #349, .F. ) ;
#19 = CARTESIAN_POINT ( 'NONE',  ( 1.047444401652940007E-13, -3.829401933506085895E-15, 30.00000000000000000 ) ) ;
#20 = VERTEX_POINT ( 'NONE', #13 ) ;
#21 = DATE_TIME_ROLE ( 'classification_date' ) ;
#22 = EDGE_LOOP ( 'NONE', ( #18, #129, #215, #108 ) ) ;
#23 = DIRECTION ( 'NONE',  ( 3.491481338843133355E-15, -1.276467311168695266E-16, 1.000000000000000000 ) ) ;
#24 = ORIENTED_EDGE ( 'NONE', *, *, #346, .F. ) ;
#25 = VECTOR ( 'NONE', #344, 1000.000000000000000 ) ;
#26 = EDGE_CURVE ( 'NONE', #135, #302, #122, .T. ) ;
#27 = AXIS2_PLACEMENT_3D ( 'NONE', #153, #239, #15 ) ;
#28 = CARTESIAN_POINT ( 'NONE',  ( 1.710332578358782742E-30, 3.999999999999998224, 4.898587196589410857E-16 ) ) ;
#29 = ORIENTED_EDGE ( 'NONE', *, *, #335, .T. ) ;
#30 = CARTESIAN_POINT ( 'NONE',  ( 1.116882594201161482E-13, 2.999999999999993783, 30.00000000000000000 ) ) ;
#31 = FACE_OUTER_BOUND ( 'NONE', #46, .T. ) ;
#32 = PRODUCT_DEFINITION_SHAPE ( 'NONE', 'NONE',  #103 ) ;
#33 = PRODUCT_RELATED_PRODUCT_CATEGORY ( 'detail', '', ( #87 ) ) ;
#34 = APPROVAL_ROLE ( '' ) ;
#35 = UNCERTAINTY_MEASURE_WITH_UNIT (LENGTH_MEASURE( 1.000000000000000082E-05 ), #270, 'distance_accuracy_value', 'NONE');
#36 = DATE_AND_TIME ( #284, #361 ) ;
#37 = PLANE ( 'NONE',  #136 ) ;
#38 = CARTESIAN_POINT ( 'NONE',  ( 2.783627874196064465E-13, -3.200000000000013056, 80.00000000000000000 ) ) ;
#39 = ADVANCED_FACE ( 'NONE', ( #205 ), #261, .T. ) ;
#40 = CARTESIAN_POINT ( 'NONE',  ( 1.047444401652940007E-13, -3.829401933506085895E-15, 30.00000000000000000 ) ) ;
#41 = CARTESIAN_POINT ( 'NONE',  ( -6.413839710158237013E-31, 0.000000000000000000, -1.836996703606440502E-16 ) ) ;
#42 = DIRECTION ( 'NONE',  ( 3.491481338843133355E-15, -1.276467311168695266E-16, 1.000000000000000000 ) ) ;
#43 = LOCAL_TIME ( 9, 9, 7.000000000000000000, #342 ) ;
#44 = VERTEX_POINT ( 'NONE', #127 ) ;
#45 = COORDINATED_UNIVERSAL_TIME_OFFSET ( 1, 0, .AHEAD. ) ;
#46 = EDGE_LOOP ( 'NONE', ( #76, #297 ) ) ;
#47 = COORDINATED_UNIVERSAL_TIME_OFFSET ( 1, 0, .AHEAD. ) ;
#48 = ORIENTED_EDGE ( 'NONE', *, *, #50, .T. ) ;
#49 = APPLICATION_CONTEXT ( 'configuration controlled 3d designs of mechanical parts and assemblies' ) ;
#50 = EDGE_CURVE ( 'NONE', #194, #355, #216, .T. ) ;
#51 = AXIS2_PLACEMENT_3D ( 'NONE', #116, #177, #337 ) ;
#52 = PERSON_AND_ORGANIZATION ( #222, #314 ) ;
#53 = ORIENTED_EDGE ( 'NONE', *, *, #152, .F. ) ;
#54 = FACE_OUTER_BOUND ( 'NONE', #160, .T. ) ;
#55 = VERTEX_POINT ( 'NONE', #347 ) ;
#56 = EDGE_CURVE ( 'NONE', #302, #44, #88, .T. ) ;
#57 = DIRECTION ( 'NONE',  ( 4.275831445896958607E-31, 1.000000000000000000, 1.224646799147353207E-16 ) ) ;
#58 = DIRECTION ( 'NONE',  ( 3.491481338843133355E-15, -1.276467311168695266E-16, 1.000000000000000000 ) ) ;
#59 = LOCAL_TIME ( 9, 9, 7.000000000000000000, #256 ) ;
#60 =( NAMED_UNIT ( * ) PLANE_ANGLE_UNIT ( ) SI_UNIT ( $, .RADIAN. ) );
#61 = CONICAL_SURFACE ( 'NONE', #244, 3.200000000000003286, 0.7853981633974510546 ) ;
#62 = SECURITY_CLASSIFICATION_LEVEL ( 'unclassified' ) ;
#63 = DATE_AND_TIME ( #200, #43 ) ;
#64 = EDGE_CURVE ( 'NONE', #243, #355, #260, .T. ) ;
#65 = PERSON_AND_ORGANIZATION_ROLE ( 'creator' ) ;
#66 = FACE_OUTER_BOUND ( 'NONE', #294, .T. ) ;
#67 = CARTESIAN_POINT ( 'NONE',  ( -1.978412509992453811E-30, -2.999999999999997335, -5.666398637112522355E-16 ) ) ;
#68 = CARTESIAN_POINT ( 'NONE',  ( 2.793185071074506684E-13, 3.199999999999993072, 80.00000000000000000 ) ) ;
#69 = MANIFOLD_SOLID_BREP ( 'Corps-Déplacer/Copier1[2]', #318 ) ;
#70 = CARTESIAN_POINT ( 'NONE',  ( 1.047444401652940007E-13, 2.999519565323706458E-32, 30.00000000000000000 ) ) ;
#71 = CARTESIAN_POINT ( 'NONE',  ( -3.688735834219957169E-30, 1.114095898418278362E-31, -1.056495932881652338E-15 ) ) ;
#72 = EDGE_LOOP ( 'NONE', ( #358, #327, #29, #99 ) ) ;
#73 = CALENDAR_DATE ( 2023, 31, 3 ) ;
#74 = EDGE_LOOP ( 'NONE', ( #82, #322 ) ) ;
#75 = DIRECTION ( 'NONE',  ( 0.000000000000000000, 1.000000000000000000, 0.000000000000000000 ) ) ;
#76 = ORIENTED_EDGE ( 'NONE', *, *, #248, .T. ) ;
#77 = ORIENTED_EDGE ( 'NONE', *, *, #26, .F. ) ;
#78 = DIRECTION ( 'NONE',  ( 0.000000000000000000, 1.000000000000000000, 0.000000000000000000 ) ) ;
#79 = EDGE_CURVE ( 'NONE', #163, #44, #184, .T. ) ;
#80 = DIRECTION ( 'NONE',  ( 0.000000000000000000, -1.000000000000000000, 0.000000000000000000 ) ) ;
#81 = AXIS2_PLACEMENT_3D ( 'NONE', #230, #278, #57 ) ;
#82 = ORIENTED_EDGE ( 'NONE', *, *, #91, .F. ) ;
#83 = CARTESIAN_POINT ( 'NONE',  ( 1.971500739759556936E-13, 3.999999999999994227, 33.73205080756886787 ) ) ;
#84 = VECTOR ( 'NONE', #235, 1000.000000000000000 ) ;
#85 = DIRECTION ( 'NONE',  ( 3.491481338843133355E-15, -1.276467311168695266E-16, 1.000000000000000000 ) ) ;
#86 = CARTESIAN_POINT ( 'NONE',  ( 1.177748259155351246E-13, -4.305786019454324428E-15, 33.73205080756886787 ) ) ;
#87 = PRODUCT ( '372750', '372750', '', ( #341 ) ) ;
#88 = CIRCLE ( 'NONE', #288, 4.000000000000002665 ) ;
#89 = CIRCLE ( 'NONE', #291, 2.999999999999997780 ) ;
#90 = CALENDAR_DATE ( 2023, 31, 3 ) ;
#91 = EDGE_CURVE ( 'NONE', #167, #268, #211, .T. ) ;
#92 = DIRECTION ( 'NONE',  ( 3.491481338843133355E-15, -1.276467311168695266E-16, 1.000000000000000000 ) ) ;
#93 = CC_DESIGN_PERSON_AND_ORGANIZATION_ASSIGNMENT ( #120, #174, ( #199 ) ) ;
#94 = DIRECTION ( 'NONE',  ( 3.491481338843133355E-15, -1.224646799147353207E-16, 1.000000000000000000 ) ) ;
#95 = DIRECTION ( 'NONE',  ( 0.000000000000000000, -1.000000000000000000, 0.000000000000000000 ) ) ;
#96 = CARTESIAN_POINT ( 'NONE',  ( 1.177748259155351246E-13, -4.305786019454324428E-15, 33.73205080756886787 ) ) ;
#97 = CALENDAR_DATE ( 2023, 31, 3 ) ;
#98 = CARTESIAN_POINT ( 'NONE',  ( 2.793185071074506684E-13, -9.797174393178826052E-15, 80.00000000000000000 ) ) ;
#99 = ORIENTED_EDGE ( 'NONE', *, *, #50, .F. ) ;
#100 = CARTESIAN_POINT ( 'NONE',  ( 2.765253220363761617E-13, -9.699202649247037618E-15, 79.20000000000000284 ) ) ;
#101 = ORIENTED_EDGE ( 'NONE', *, *, #335, .F. ) ;
#102 = AXIS2_PLACEMENT_3D ( 'NONE', #41, #92, #315 ) ;
#103 = PRODUCT_DEFINITION ( 'UNKNOWN', '', #199, #340 ) ;
#104 = ADVANCED_FACE ( 'NONE', ( #290 ), #180, .T. ) ;
#105 = APPROVAL_ROLE ( '' ) ;
#106 = ORIENTED_EDGE ( 'NONE', *, *, #237, .T. ) ;
#107 = DIRECTION ( 'NONE',  ( -3.491481338843133355E-15, 1.224646799147353207E-16, -1.000000000000000000 ) ) ;
#108 = ORIENTED_EDGE ( 'NONE', *, *, #9, .F. ) ;
#109 = DIRECTION ( 'NONE',  ( -4.275831445896958607E-31, -1.000000000000000000, -1.224646799147353207E-16 ) ) ;
#110 = CARTESIAN_POINT ( 'NONE',  ( 1.698963689164996959E-13, -8.000000000000005329, 48.66025403784432513 ) ) ;
#111 = CC_DESIGN_SECURITY_CLASSIFICATION ( #202, ( #199 ) ) ;
#112 = CARTESIAN_POINT ( 'NONE',  ( 0.000000000000000000, 0.000000000000000000, 0.000000000000000000 ) ) ;
#113 = LINE ( 'NONE', #28, #187 ) ;
#114 = PERSON_AND_ORGANIZATION_ROLE ( 'creator' ) ;
#115 = CIRCLE ( 'NONE', #145, 2.999999999999997780 ) ;
#116 = CARTESIAN_POINT ( 'NONE',  ( 0.000000000000000000, 0.000000000000000000, 0.000000000000000000 ) ) ;
#117 = CIRCLE ( 'NONE', #27, 3.200000000000003286 ) ;
#118 = ADVANCED_FACE ( 'NONE', ( #66 ), #309, .T. ) ;
#119 =( NAMED_UNIT ( * ) SI_UNIT ( $, .STERADIAN. ) SOLID_ANGLE_UNIT ( ) );
#120 = PERSON_AND_ORGANIZATION ( #222, #314 ) ;
#121 = LOCAL_TIME ( 9, 9, 7.000000000000000000, #45 ) ;
#122 = LINE ( 'NONE', #182, #84 ) ;
#123 = DIRECTION ( 'NONE',  ( -4.456761796588770537E-31, -1.000000000000000000, -1.276467311168695266E-16 ) ) ;
#124 = DIRECTION ( 'NONE',  ( 3.491481338843133355E-15, -1.276467311168695266E-16, 1.000000000000000000 ) ) ;
#125 = ADVANCED_FACE ( 'NONE', ( #151 ), #61, .T. ) ;
#126 = CIRCLE ( 'NONE', #286, 3.999999999999998224 ) ;
#127 = CARTESIAN_POINT ( 'NONE',  ( 2.765253220363761617E-13, 3.999999999999993339, 79.20000000000000284 ) ) ;
#128 = CARTESIAN_POINT ( 'NONE',  ( 1.698963689164996959E-13, -6.211322363247279349E-15, 48.66025403784432513 ) ) ;
#129 = ORIENTED_EDGE ( 'NONE', *, *, #144, .T. ) ;
#130 = FACE_OUTER_BOUND ( 'NONE', #353, .T. ) ;
#131 = ORIENTED_EDGE ( 'NONE', *, *, #26, .T. ) ;
#132 = APPROVAL ( #201, 'UNSPECIFIED' ) ;
#133 = APPROVAL_STATUS ( 'not_yet_approved' ) ;
#134 = DIRECTION ( 'NONE',  ( 4.275831445896958607E-31, 1.000000000000000000, 1.224646799147353207E-16 ) ) ;
#135 = VERTEX_POINT ( 'NONE', #38 ) ;
#136 = AXIS2_PLACEMENT_3D ( 'NONE', #70, #94, #186 ) ;
#137 = DIRECTION ( 'NONE',  ( -3.491481338843133355E-15, 1.224646799147353207E-16, -1.000000000000000000 ) ) ;
#138 = LINE ( 'NONE', #110, #281 ) ;
#139 = CYLINDRICAL_SURFACE ( 'NONE', #348, 3.999999999999998224 ) ;
#140 = DIRECTION ( 'NONE',  ( 3.491481338843133355E-15, -1.276467311168695266E-16, 1.000000000000000000 ) ) ;
#141 = EDGE_CURVE ( 'NONE', #167, #357, #240, .T. ) ;
#142 = APPROVAL_ROLE ( '' ) ;
#143 = CC_DESIGN_DATE_AND_TIME_ASSIGNMENT ( #17, #21, ( #202 ) ) ;
#144 = EDGE_CURVE ( 'NONE', #268, #167, #166, .T. ) ;
#145 = AXIS2_PLACEMENT_3D ( 'NONE', #304, #23, #306 ) ;
#146 = PERSON_AND_ORGANIZATION_ROLE ( 'classification_officer' ) ;
#147 = APPLICATION_PROTOCOL_DEFINITION ( 'international standard', 'config_control_design', 1994, #179 ) ;
#148 = CARTESIAN_POINT ( 'NONE',  ( 2.793185071074506684E-13, 3.199999999999993072, 80.00000000000000000 ) ) ;
#149 = CIRCLE ( 'NONE', #307, 3.200000000000003286 ) ;
#150 = CARTESIAN_POINT ( 'NONE',  ( 2.765253220363761617E-13, -9.699202649247037618E-15, 79.20000000000000284 ) ) ;
#151 = FACE_OUTER_BOUND ( 'NONE', #165, .T. ) ;
#152 = EDGE_CURVE ( 'NONE', #243, #55, #89, .T. ) ;
#153 = CARTESIAN_POINT ( 'NONE',  ( 2.793185071074506684E-13, -9.797174393178826052E-15, 80.00000000000000000 ) ) ;
#154 = ADVANCED_FACE ( 'NONE', ( #317 ), #232, .T. ) ;
#155 = APPROVAL_PERSON_ORGANIZATION ( #52, #3, #105 ) ;
#156 = DIRECTION ( 'NONE',  ( 3.491481338843133355E-15, -1.276467311168695266E-16, 1.000000000000000000 ) ) ;
#157 = EDGE_LOOP ( 'NONE', ( #162, #53 ) ) ;
#158 = CC_DESIGN_PERSON_AND_ORGANIZATION_ASSIGNMENT ( #287, #313, ( #87 ) ) ;
#159 = DIRECTION ( 'NONE',  ( 4.275831445896958607E-31, 1.000000000000000000, 1.224646799147353207E-16 ) ) ;
#160 = EDGE_LOOP ( 'NONE', ( #362, #329, #246, #101 ) ) ;
#161 = DIRECTION ( 'NONE',  ( 0.000000000000000000, -1.000000000000000000, 0.000000000000000000 ) ) ;
#162 = ORIENTED_EDGE ( 'NONE', *, *, #273, .F. ) ;
#163 = VERTEX_POINT ( 'NONE', #68 ) ;
#164 = CARTESIAN_POINT ( 'NONE',  ( 2.793185071074506684E-13, 2.399615652258959583E-32, 80.00000000000000000 ) ) ;
#165 = EDGE_LOOP ( 'NONE', ( #77, #192, #245, #277 ) ) ;
#166 = CIRCLE ( 'NONE', #183, 2.999999999999996447 ) ;
#167 = VERTEX_POINT ( 'NONE', #321 ) ;
#168 = CARTESIAN_POINT ( 'NONE',  ( 4.898587196589394093E-16, -3.999999999999998224, -4.898587196589427620E-16 ) ) ;
#169 = ADVANCED_BREP_SHAPE_REPRESENTATION ( '372750', ( #196, #69, #51 ), #280 ) ;
#170 = EDGE_LOOP ( 'NONE', ( #218, #191, #106, #352 ) ) ;
#171 = LINE ( 'NONE', #168, #275 ) ;
#172 = CC_DESIGN_APPROVAL ( #311, ( #199 ) ) ;
#173 = PERSON_AND_ORGANIZATION ( #222, #314 ) ;
#174 = PERSON_AND_ORGANIZATION_ROLE ( 'design_supplier' ) ;
#175 = PERSON_AND_ORGANIZATION ( #222, #314 ) ;
#176 = CIRCLE ( 'NONE', #227, 2.999999999999997780 ) ;
#177 = DIRECTION ( 'NONE',  ( 0.000000000000000000, 0.000000000000000000, 1.000000000000000000 ) ) ;
#178 = CLOSED_SHELL ( 'NONE', ( #39, #118, #283, #225, #125, #209, #154, #204 ) ) ;
#179 = APPLICATION_CONTEXT ( 'configuration controlled 3d designs of mechanical parts and assemblies' ) ;
#180 = CYLINDRICAL_SURFACE ( 'NONE', #102, 2.999999999999997335 ) ;
#181 = EDGE_CURVE ( 'NONE', #163, #135, #117, .T. ) ;
#182 = CARTESIAN_POINT ( 'NONE',  ( 2.797103940831777906E-13, -3.200000000000013056, 80.00000000000000000 ) ) ;
#183 = AXIS2_PLACEMENT_3D ( 'NONE', #71, #124, #123 ) ;
#184 = LINE ( 'NONE', #148, #338 ) ;
#185 = SHAPE_DEFINITION_REPRESENTATION ( #32, #169 ) ;
#186 = DIRECTION ( 'NONE',  ( -4.275831445896958607E-31, -1.000000000000000000, -1.224646799147353207E-16 ) ) ;
#187 = VECTOR ( 'NONE', #242, 1000.000000000000000 ) ;
#188 = FACE_OUTER_BOUND ( 'NONE', #157, .T. ) ;
#189 = AXIS2_PLACEMENT_3D ( 'NONE', #259, #156, #320 ) ;
#190 = ORIENTED_EDGE ( 'NONE', *, *, #64, .F. ) ;
#191 = ORIENTED_EDGE ( 'NONE', *, *, #64, .T. ) ;
#192 = ORIENTED_EDGE ( 'NONE', *, *, #336, .T. ) ;
#193 = LINE ( 'NONE', #224, #206 ) ;
#194 = VERTEX_POINT ( 'NONE', #350 ) ;
#195 = DIRECTION ( 'NONE',  ( -4.456761796588770537E-31, -1.000000000000000000, -1.276467311168695266E-16 ) ) ;
#196 = MANIFOLD_SOLID_BREP ( 'Corps-Déplacer/Copier1[1]', #178 ) ;
#197 = FACE_OUTER_BOUND ( 'NONE', #325, .T. ) ;
#198 = DIRECTION ( 'NONE',  ( -3.491481338843133355E-15, 1.224646799147353207E-16, -1.000000000000000000 ) ) ;
#199 = PRODUCT_DEFINITION_FORMATION_WITH_SPECIFIED_SOURCE ( 'ANY', '', #87, .NOT_KNOWN. ) ;
#200 = CALENDAR_DATE ( 2023, 31, 3 ) ;
#201 = APPROVAL_STATUS ( 'not_yet_approved' ) ;
#202 = SECURITY_CLASSIFICATION ( '', '', #62 ) ;
#203 = DIRECTION ( 'NONE',  ( 3.491481338843133355E-15, -1.276467311168695266E-16, 1.000000000000000000 ) ) ;
#204 = ADVANCED_FACE ( 'NONE', ( #188 ), #37, .F. ) ;
#205 = FACE_OUTER_BOUND ( 'NONE', #170, .T. ) ;
#206 = VECTOR ( 'NONE', #140, 1000.000000000000000 ) ;
#207 = AXIS2_PLACEMENT_3D ( 'NONE', #363, #354, #109 ) ;
#208 = EDGE_CURVE ( 'NONE', #302, #194, #171, .T. ) ;
#209 = ADVANCED_FACE ( 'NONE', ( #197 ), #217, .F. ) ;
#210 = DIRECTION ( 'NONE',  ( 0.000000000000000000, -1.000000000000000000, 0.000000000000000000 ) ) ;
#211 = CIRCLE ( 'NONE', #189, 2.999999999999996447 ) ;
#212 = DIRECTION ( 'NONE',  ( 0.000000000000000000, -1.000000000000000000, 0.000000000000000000 ) ) ;
#213 = DIRECTION ( 'NONE',  ( -3.491481338843133355E-15, 1.276467311168695266E-16, -1.000000000000000000 ) ) ;
#214 = AXIS2_PLACEMENT_3D ( 'NONE', #1, #58, #195 ) ;
#215 = ORIENTED_EDGE ( 'NONE', *, *, #141, .T. ) ;
#216 = CIRCLE ( 'NONE', #229, 3.999999999999998224 ) ;
#217 = PLANE ( 'NONE',  #319 ) ;
#218 = ORIENTED_EDGE ( 'NONE', *, *, #273, .T. ) ;
#219 = ADVANCED_FACE ( 'NONE', ( #299 ), #301, .F. ) ;
#220 = DIRECTION ( 'NONE',  ( -4.275831445896958607E-31, -1.000000000000000000, -1.224646799147353207E-16 ) ) ;
#221 = DIRECTION ( 'NONE',  ( 3.491481338843133355E-15, -1.276467311168695266E-16, 1.000000000000000000 ) ) ;
#222 = PERSON ( 'UNSPECIFIED', 'UNSPECIFIED', 'UNSPECIFIED', ('UNSPECIFIED'), ('UNSPECIFIED'), ('UNSPECIFIED') ) ;
#223 = ORIENTED_EDGE ( 'NONE', *, *, #336, .F. ) ;
#224 = CARTESIAN_POINT ( 'NONE',  ( 3.673940397442063319E-16, 2.999999999999997335, 1.992405229899629517E-16 ) ) ;
#225 = ADVANCED_FACE ( 'NONE', ( #333 ), #359, .T. ) ;
#226 = ORIENTED_EDGE ( 'NONE', *, *, #91, .T. ) ;
#227 = AXIS2_PLACEMENT_3D ( 'NONE', #19, #85, #161 ) ;
#228 = CARTESIAN_POINT ( 'NONE',  ( -6.413831862750773340E-31, 2.249669380615852596E-32, -1.836994456019613255E-16 ) ) ;
#229 = AXIS2_PLACEMENT_3D ( 'NONE', #96, #213, #212 ) ;
#230 = CARTESIAN_POINT ( 'NONE',  ( 0.000000000000000000, 0.000000000000000000, 0.000000000000000000 ) ) ;
#231 = DATE_TIME_ROLE ( 'creation_date' ) ;
#232 = CONICAL_SURFACE ( 'NONE', #339, 7.999999999999998224, 0.2617993877991502960 ) ;
#233 = APPLICATION_PROTOCOL_DEFINITION ( 'international standard', 'config_control_design', 1994, #49 ) ;
#234 = APPROVAL_PERSON_ORGANIZATION ( #173, #132, #34 ) ;
#235 = DIRECTION ( 'NONE',  ( -2.382254525458709186E-15, -0.7071067811865493491, -0.7071067811865456854 ) ) ;
#236 = CARTESIAN_POINT ( 'NONE',  ( 1.698963689164996959E-13, -6.211322363247279349E-15, 48.66025403784432513 ) ) ;
#237 = EDGE_CURVE ( 'NONE', #355, #194, #126, .T. ) ;
#238 = DIRECTION ( 'NONE',  ( 0.000000000000000000, -1.000000000000000000, 0.000000000000000000 ) ) ;
#239 = DIRECTION ( 'NONE',  ( -3.491481338843133355E-15, 1.224646799147353207E-16, -1.000000000000000000 ) ) ;
#240 = LINE ( 'NONE', #67, #16 ) ;
#241 = ORIENTED_EDGE ( 'NONE', *, *, #79, .F. ) ;
#242 = DIRECTION ( 'NONE',  ( -3.491481338843133355E-15, 1.224646799147353207E-16, -1.000000000000000000 ) ) ;
#243 = VERTEX_POINT ( 'NONE', #30 ) ;
#244 = AXIS2_PLACEMENT_3D ( 'NONE', #98, #265, #289 ) ;
#245 = ORIENTED_EDGE ( 'NONE', *, *, #79, .T. ) ;
#246 = ORIENTED_EDGE ( 'NONE', *, *, #237, .F. ) ;
#247 = CC_DESIGN_PERSON_AND_ORGANIZATION_ASSIGNMENT ( #4, #65, ( #199 ) ) ;
#248 = EDGE_CURVE ( 'NONE', #357, #20, #176, .T. ) ;
#249 = DIRECTION ( 'NONE',  ( -3.491481338843133355E-15, 1.224646799147353207E-16, -1.000000000000000000 ) ) ;
#250 = ORIENTED_EDGE ( 'NONE', *, *, #248, .F. ) ;
#251 = ORIENTED_EDGE ( 'NONE', *, *, #349, .T. ) ;
#252 = DIRECTION ( 'NONE',  ( -1.953992523340275827E-14, -1.000000000000000000, 0.000000000000000000 ) ) ;
#253 = CC_DESIGN_APPROVAL ( #3, ( #202 ) ) ;
#254 = CARTESIAN_POINT ( 'NONE',  ( 1.047444401652940007E-13, -3.000000000000001776, 30.00000000000000000 ) ) ;
#255 = CIRCLE ( 'NONE', #295, 2.999999999999997780 ) ;
#256 = COORDINATED_UNIVERSAL_TIME_OFFSET ( 1, 0, .AHEAD. ) ;
#257 = COORDINATED_UNIVERSAL_TIME_OFFSET ( 1, 0, .AHEAD. ) ;
#258 = APPROVAL_DATE_TIME ( #2, #132 ) ;
#259 = CARTESIAN_POINT ( 'NONE',  ( -3.688735834219957169E-30, 1.114095898418278362E-31, -1.056495932881652338E-15 ) ) ;
#260 = LINE ( 'NONE', #292, #25 ) ;
#261 = CONICAL_SURFACE ( 'NONE', #7, 7.999999999999998224, 0.2617993877991502960 ) ;
#262 = DIRECTION ( 'NONE',  ( 3.491481338843133355E-15, -1.276467311168695266E-16, 1.000000000000000000 ) ) ;
#263 = DIRECTION ( 'NONE',  ( 3.491481338843133355E-15, -1.276467311168695266E-16, 1.000000000000000000 ) ) ;
#264 = APPROVAL_DATE_TIME ( #296, #3 ) ;
#265 = DIRECTION ( 'NONE',  ( -3.491481338843133355E-15, 1.224646799147353207E-16, -1.000000000000000000 ) ) ;
#266 = EDGE_LOOP ( 'NONE', ( #190, #271, #303, #48 ) ) ;
#267 = DIRECTION ( 'NONE',  ( 3.491481338843133355E-15, -1.224646799147353207E-16, 1.000000000000000000 ) ) ;
#268 = VERTEX_POINT ( 'NONE', #330 ) ;
#269 = ADVANCED_FACE ( 'NONE', ( #31 ), #279, .T. ) ;
#270 =( LENGTH_UNIT ( ) NAMED_UNIT ( * ) SI_UNIT ( .MILLI., .METRE. ) );
#271 = ORIENTED_EDGE ( 'NONE', *, *, #152, .T. ) ;
#272 = CC_DESIGN_PERSON_AND_ORGANIZATION_ASSIGNMENT ( #282, #146, ( #202 ) ) ;
#273 = EDGE_CURVE ( 'NONE', #55, #243, #115, .T. ) ;
#274 = ORIENTED_EDGE ( 'NONE', *, *, #141, .F. ) ;
#275 = VECTOR ( 'NONE', #107, 1000.000000000000000 ) ;
#276 = CARTESIAN_POINT ( 'NONE',  ( 1.976399326956144323E-13, -4.000000000000012434, 79.20000000000000284 ) ) ;
#277 = ORIENTED_EDGE ( 'NONE', *, *, #56, .F. ) ;
#278 = DIRECTION ( 'NONE',  ( -3.491481338843133355E-15, 1.224646799147353207E-16, -1.000000000000000000 ) ) ;
#279 = PLANE ( 'NONE',  #207 ) ;
#280 =( GEOMETRIC_REPRESENTATION_CONTEXT ( 3 ) GLOBAL_UNCERTAINTY_ASSIGNED_CONTEXT ( ( #35 ) ) GLOBAL_UNIT_ASSIGNED_CONTEXT ( ( #270, #60, #119 ) ) REPRESENTATION_CONTEXT ( 'NONE', 'WORKASPACE' ) );
#281 = VECTOR ( 'NONE', #6, 1000.000000000000114 ) ;
#282 = PERSON_AND_ORGANIZATION ( #222, #314 ) ;
#283 = ADVANCED_FACE ( 'NONE', ( #54 ), #139, .T. ) ;
#284 = CALENDAR_DATE ( 2023, 31, 3 ) ;
#285 = AXIS2_PLACEMENT_3D ( 'NONE', #100, #249, #75 ) ;
#286 = AXIS2_PLACEMENT_3D ( 'NONE', #86, #332, #252 ) ;
#287 = PERSON_AND_ORGANIZATION ( #222, #314 ) ;
#288 = AXIS2_PLACEMENT_3D ( 'NONE', #150, #345, #351 ) ;
#289 = DIRECTION ( 'NONE',  ( 0.000000000000000000, 1.000000000000000000, 0.000000000000000000 ) ) ;
#290 = FACE_OUTER_BOUND ( 'NONE', #22, .T. ) ;
#291 = AXIS2_PLACEMENT_3D ( 'NONE', #40, #262, #95 ) ;
#292 = CARTESIAN_POINT ( 'NONE',  ( 1.708760863558175771E-13, 7.999999999999991118, 48.66025403784432513 ) ) ;
#293 = DIRECTION ( 'NONE',  ( 0.000000000000000000, 1.000000000000000000, 0.000000000000000000 ) ) ;
#294 = EDGE_LOOP ( 'NONE', ( #324, #131, #24, #241 ) ) ;
#295 = AXIS2_PLACEMENT_3D ( 'NONE', #300, #221, #80 ) ;
#296 = DATE_AND_TIME ( #73, #343 ) ;
#297 = ORIENTED_EDGE ( 'NONE', *, *, #9, .T. ) ;
#298 = CC_DESIGN_DATE_AND_TIME_ASSIGNMENT ( #63, #231, ( #103 ) ) ;
#299 = FACE_OUTER_BOUND ( 'NONE', #74, .T. ) ;
#300 = CARTESIAN_POINT ( 'NONE',  ( 1.047444401652940007E-13, -3.829401933506085895E-15, 30.00000000000000000 ) ) ;
#301 = PLANE ( 'NONE',  #331 ) ;
#302 = VERTEX_POINT ( 'NONE', #276 ) ;
#303 = ORIENTED_EDGE ( 'NONE', *, *, #12, .T. ) ;
#304 = CARTESIAN_POINT ( 'NONE',  ( 1.047444401652940007E-13, -3.829401933506085895E-15, 30.00000000000000000 ) ) ;
#305 = CYLINDRICAL_SURFACE ( 'NONE', #214, 2.999999999999997335 ) ;
#306 = DIRECTION ( 'NONE',  ( 0.000000000000000000, -1.000000000000000000, 0.000000000000000000 ) ) ;
#307 = AXIS2_PLACEMENT_3D ( 'NONE', #323, #137, #78 ) ;
#308 = APPROVAL_DATE_TIME ( #36, #311 ) ;
#309 = CONICAL_SURFACE ( 'NONE', #356, 3.200000000000003286, 0.7853981633974510546 ) ;
#310 = PERSON_AND_ORGANIZATION ( #222, #314 ) ;
#311 = APPROVAL ( #334, 'UNSPECIFIED' ) ;
#312 = ADVANCED_FACE ( 'NONE', ( #130 ), #305, .T. ) ;
#313 = PERSON_AND_ORGANIZATION_ROLE ( 'design_owner' ) ;
#314 = ORGANIZATION ( 'UNSPECIFIED', 'UNSPECIFIED', '' ) ;
#315 = DIRECTION ( 'NONE',  ( -4.456761796588770537E-31, -1.000000000000000000, -1.276467311168695266E-16 ) ) ;
#316 = DIRECTION ( 'NONE',  ( -2.468850131082258244E-15, 0.7071067811865495711, -0.7071067811865454633 ) ) ;
#317 = FACE_OUTER_BOUND ( 'NONE', #266, .T. ) ;
#318 = CLOSED_SHELL ( 'NONE', ( #312, #269, #104, #219 ) ) ;
#319 = AXIS2_PLACEMENT_3D ( 'NONE', #164, #326, #159 ) ;
#320 = DIRECTION ( 'NONE',  ( -4.456761796588770537E-31, -1.000000000000000000, -1.276467311168695266E-16 ) ) ;
#321 = CARTESIAN_POINT ( 'NONE',  ( -5.025764373196586666E-30, -2.999999999999996447, -1.439436126232260573E-15 ) ) ;
#322 = ORIENTED_EDGE ( 'NONE', *, *, #144, .F. ) ;
#323 = CARTESIAN_POINT ( 'NONE',  ( 2.793185071074506684E-13, -9.797174393178826052E-15, 80.00000000000000000 ) ) ;
#324 = ORIENTED_EDGE ( 'NONE', *, *, #181, .T. ) ;
#325 = EDGE_LOOP ( 'NONE', ( #360, #223 ) ) ;
#326 = DIRECTION ( 'NONE',  ( -3.491481338843133355E-15, 1.224646799147353207E-16, -1.000000000000000000 ) ) ;
#327 = ORIENTED_EDGE ( 'NONE', *, *, #56, .T. ) ;
#328 = CC_DESIGN_APPROVAL ( #132, ( #103 ) ) ;
#329 = ORIENTED_EDGE ( 'NONE', *, *, #208, .T. ) ;
#330 = CARTESIAN_POINT ( 'NONE',  ( 5.273961412239124364E-14, 2.999999999999996891, -6.735557395312284013E-16 ) ) ;
#331 = AXIS2_PLACEMENT_3D ( 'NONE', #228, #267, #220 ) ;
#332 = DIRECTION ( 'NONE',  ( -3.491481338843133355E-15, 1.276467311168695266E-16, -1.000000000000000000 ) ) ;
#333 = FACE_OUTER_BOUND ( 'NONE', #72, .T. ) ;
#334 = APPROVAL_STATUS ( 'not_yet_approved' ) ;
#335 = EDGE_CURVE ( 'NONE', #44, #355, #113, .T. ) ;
#336 = EDGE_CURVE ( 'NONE', #135, #163, #149, .T. ) ;
#337 = DIRECTION ( 'NONE',  ( 1.000000000000000000, 0.000000000000000000, 0.000000000000000000 ) ) ;
#338 = VECTOR ( 'NONE', #316, 1000.000000000000000 ) ;
#339 = AXIS2_PLACEMENT_3D ( 'NONE', #236, #42, #210 ) ;
#340 = DESIGN_CONTEXT ( 'detailed design', #49, 'design' ) ;
#341 = MECHANICAL_CONTEXT ( 'NONE', #179, 'mechanical' ) ;
#342 = COORDINATED_UNIVERSAL_TIME_OFFSET ( 1, 0, .AHEAD. ) ;
#343 = LOCAL_TIME ( 9, 9, 7.000000000000000000, #47 ) ;
#344 = DIRECTION ( 'NONE',  ( 3.404208188709233130E-15, 0.2588190451025214611, 0.9659258262890680902 ) ) ;
#345 = DIRECTION ( 'NONE',  ( -3.491481338843133355E-15, 1.224646799147353207E-16, -1.000000000000000000 ) ) ;
#346 = EDGE_CURVE ( 'NONE', #44, #302, #14, .T. ) ;
#347 = CARTESIAN_POINT ( 'NONE',  ( 1.047444401652940007E-13, -3.000000000000001776, 30.00000000000000000 ) ) ;
#348 = AXIS2_PLACEMENT_3D ( 'NONE', #112, #198, #134 ) ;
#349 = EDGE_CURVE ( 'NONE', #268, #20, #193, .T. ) ;
#350 = CARTESIAN_POINT ( 'NONE',  ( 1.976399326956145837E-13, -4.000000000000002665, 33.73205080756886787 ) ) ;
#351 = DIRECTION ( 'NONE',  ( 0.000000000000000000, 1.000000000000000000, 0.000000000000000000 ) ) ;
#352 = ORIENTED_EDGE ( 'NONE', *, *, #12, .F. ) ;
#353 = EDGE_LOOP ( 'NONE', ( #226, #251, #250, #274 ) ) ;
#354 = DIRECTION ( 'NONE',  ( 3.491481338843133355E-15, -1.224646799147353207E-16, 1.000000000000000000 ) ) ;
#355 = VERTEX_POINT ( 'NONE', #83 ) ;
#356 = AXIS2_PLACEMENT_3D ( 'NONE', #8, #10, #293 ) ;
#357 = VERTEX_POINT ( 'NONE', #254 ) ;
#358 = ORIENTED_EDGE ( 'NONE', *, *, #208, .F. ) ;
#359 = CYLINDRICAL_SURFACE ( 'NONE', #81, 3.999999999999998224 ) ;
#360 = ORIENTED_EDGE ( 'NONE', *, *, #181, .F. ) ;
#361 = LOCAL_TIME ( 9, 9, 7.000000000000000000, #257 ) ;
#362 = ORIENTED_EDGE ( 'NONE', *, *, #346, .T. ) ;
#363 = CARTESIAN_POINT ( 'NONE',  ( 1.047444401652940007E-13, 2.999519565323706458E-32, 30.00000000000000000 ) ) ;
ENDSEC;
END-ISO-10303-21;
