ISO-10303-21;
HEADER;
FILE_DESCRIPTION (( 'STEP AP203' ),
    '1' );
FILE_NAME ('372749.step',
    '2023-03-31T07:09:06',
    ( '' ),
    ( '' ),
    'SwSTEP 2.0',
    'SolidWorks 2022',
    '' );
FILE_SCHEMA (( 'CONFIG_CONTROL_DESIGN' ));
ENDSEC;

DATA;
#1 = APPLICATION_PROTOCOL_DEFINITION ( 'international standard', 'config_control_design', 1994, #93 ) ;
#2 = EDGE_LOOP ( 'NONE', ( #40, #129, #151, #147 ) ) ;
#3 = CALENDAR_DATE ( 2023, 31, 3 ) ;
#4 = EDGE_LOOP ( 'NONE', ( #94, #71, #64, #212 ) ) ;
#5 = CALENDAR_DATE ( 2023, 31, 3 ) ;
#6 = VECTOR ( 'NONE', #167, 1000.000000000000000 ) ;
#7 = ORIENTED_EDGE ( 'NONE', *, *, #337, .F. ) ;
#8 = PERSON_AND_ORGANIZATION_ROLE ( 'creator' ) ;
#9 = CC_DESIGN_PERSON_AND_ORGANIZATION_ASSIGNMENT ( #286, #8, ( #113 ) ) ;
#10 = CARTESIAN_POINT ( 'NONE',  ( 1.710332578358782742E-30, 3.999999999999998224, 4.898587196589410857E-16 ) ) ;
#11 = CIRCLE ( 'NONE', #269, 3.999999999999998224 ) ;
#12 = CARTESIAN_POINT ( 'NONE',  ( 7.681258945454893382E-14, 2.999519565323707005E-32, 22.00000000000000000 ) ) ;
#13 = LOCAL_TIME ( 9, 9, 6.000000000000000000, #266 ) ;
#14 = ADVANCED_FACE ( 'NONE', ( #70 ), #323, .T. ) ;
#15 = DIRECTION ( 'NONE',  ( -2.468850131082258244E-15, 0.7071067811865495711, -0.7071067811865454633 ) ) ;
#16 = EDGE_CURVE ( 'NONE', #128, #87, #104, .T. ) ;
#17 = CARTESIAN_POINT ( 'NONE',  ( -3.688735834219957169E-30, 1.114095898418278362E-31, -1.056495932881652338E-15 ) ) ;
#18 = CARTESIAN_POINT ( 'NONE',  ( 7.681258945454893382E-14, -3.000000000000000888, 22.00000000000000000 ) ) ;
#19 = VECTOR ( 'NONE', #15, 1000.000000000000000 ) ;
#20 = CARTESIAN_POINT ( 'NONE',  ( 7.681258945454893382E-14, -2.808228084571129683E-15, 22.00000000000000000 ) ) ;
#21 = FACE_OUTER_BOUND ( 'NONE', #291, .T. ) ;
#22 = DIRECTION ( 'NONE',  ( 3.491481338843133355E-15, -1.276467311168695266E-16, 1.000000000000000000 ) ) ;
#23 = PLANE ( 'NONE',  #240 ) ;
#24 = DIRECTION ( 'NONE',  ( 4.275831445896958607E-31, 1.000000000000000000, 1.224646799147353207E-16 ) ) ;
#25 = EDGE_CURVE ( 'NONE', #56, #185, #321, .T. ) ;
#26 = VECTOR ( 'NONE', #277, 1000.000000000000000 ) ;
#27 = CARTESIAN_POINT ( 'NONE',  ( 1.429442356450725102E-13, 7.999999999999992895, 40.66025403784432513 ) ) ;
#28 = CYLINDRICAL_SURFACE ( 'NONE', #287, 2.999999999999997335 ) ;
#29 = ORIENTED_EDGE ( 'NONE', *, *, #61, .F. ) ;
#30 = PERSON_AND_ORGANIZATION ( #123, #177 ) ;
#31 = VERTEX_POINT ( 'NONE', #18 ) ;
#32 = LOCAL_TIME ( 9, 9, 6.000000000000000000, #124 ) ;
#33 = VERTEX_POINT ( 'NONE', #268 ) ;
#34 = PERSON_AND_ORGANIZATION ( #123, #177 ) ;
#35 = AXIS2_PLACEMENT_3D ( 'NONE', #196, #256, #305 ) ;
#36 = DIRECTION ( 'NONE',  ( 3.491481338843133355E-15, -1.276467311168695266E-16, 1.000000000000000000 ) ) ;
#37 = FACE_OUTER_BOUND ( 'NONE', #244, .T. ) ;
#38 = CLOSED_SHELL ( 'NONE', ( #53, #14, #146, #312, #120, #242, #148, #50 ) ) ;
#39 = AXIS2_PLACEMENT_3D ( 'NONE', #267, #161, #243 ) ;
#40 = ORIENTED_EDGE ( 'NONE', *, *, #315, .F. ) ;
#41 = APPROVAL_PERSON_ORGANIZATION ( #34, #261, #335 ) ;
#42 = DIRECTION ( 'NONE',  ( 3.491481338843133355E-15, -1.224646799147353207E-16, 1.000000000000000000 ) ) ;
#43 = ORIENTED_EDGE ( 'NONE', *, *, #220, .T. ) ;
#44 = DIRECTION ( 'NONE',  ( 0.000000000000000000, -1.000000000000000000, 0.000000000000000000 ) ) ;
#45 = AXIS2_PLACEMENT_3D ( 'NONE', #241, #36, #159 ) ;
#46 = APPROVAL ( #343, 'UNSPECIFIED' ) ;
#47 = DIRECTION ( 'NONE',  ( 3.491481338843133355E-15, -1.276467311168695266E-16, 1.000000000000000000 ) ) ;
#48 = CYLINDRICAL_SURFACE ( 'NONE', #119, 3.999999999999998224 ) ;
#49 = DIRECTION ( 'NONE',  ( -4.456761796588770537E-31, -1.000000000000000000, -1.276467311168695266E-16 ) ) ;
#50 = ADVANCED_FACE ( 'NONE', ( #67 ), #294, .F. ) ;
#51 = LINE ( 'NONE', #284, #26 ) ;
#52 = DIRECTION ( 'NONE',  ( 0.000000000000000000, 1.000000000000000000, 0.000000000000000000 ) ) ;
#53 = ADVANCED_FACE ( 'NONE', ( #295 ), #306, .T. ) ;
#54 = AXIS2_PLACEMENT_3D ( 'NONE', #98, #133, #297 ) ;
#55 = DIRECTION ( 'NONE',  ( 0.000000000000000000, -1.000000000000000000, 0.000000000000000000 ) ) ;
#56 = VERTEX_POINT ( 'NONE', #154 ) ;
#57 = CALENDAR_DATE ( 2023, 31, 3 ) ;
#58 = DATE_TIME_ROLE ( 'classification_date' ) ;
#59 = ORIENTED_EDGE ( 'NONE', *, *, #211, .T. ) ;
#60 = PERSON_AND_ORGANIZATION_ROLE ( 'classification_officer' ) ;
#61 = EDGE_CURVE ( 'NONE', #214, #144, #216, .T. ) ;
#62 = EDGE_LOOP ( 'NONE', ( #116, #203, #73, #29 ) ) ;
#63 = APPROVAL_DATE_TIME ( #179, #320 ) ;
#64 = ORIENTED_EDGE ( 'NONE', *, *, #337, .T. ) ;
#65 = CARTESIAN_POINT ( 'NONE',  ( -6.413831862750773340E-31, 2.249669380615852596E-32, -1.836994456019613255E-16 ) ) ;
#66 = APPROVAL_PERSON_ORGANIZATION ( #236, #46, #238 ) ;
#67 = FACE_OUTER_BOUND ( 'NONE', #334, .T. ) ;
#68 = CIRCLE ( 'NONE', #35, 4.000000000000002665 ) ;
#69 = AXIS2_PLACEMENT_3D ( 'NONE', #166, #111, #109 ) ;
#70 = FACE_OUTER_BOUND ( 'NONE', #62, .T. ) ;
#71 = ORIENTED_EDGE ( 'NONE', *, *, #315, .T. ) ;
#72 = CC_DESIGN_PERSON_AND_ORGANIZATION_ASSIGNMENT ( #200, #142, ( #103 ) ) ;
#73 = ORIENTED_EDGE ( 'NONE', *, *, #211, .F. ) ;
#74 = CARTESIAN_POINT ( 'NONE',  ( 1.836740073402419241E-13, -4.000000000000012434, 79.20000000000000284 ) ) ;
#75 = CIRCLE ( 'NONE', #132, 2.999999999999998224 ) ;
#76 = CC_DESIGN_APPROVAL ( #320, ( #276 ) ) ;
#77 = CARTESIAN_POINT ( 'NONE',  ( -5.025764373196586666E-30, -2.999999999999996447, -1.439436126232260573E-15 ) ) ;
#78 = EDGE_CURVE ( 'NONE', #56, #214, #245, .T. ) ;
#79 = CARTESIAN_POINT ( 'NONE',  ( 8.375640870937106879E-14, 2.999999999999995559, 22.00000000000000000 ) ) ;
#80 = AXIS2_PLACEMENT_3D ( 'NONE', #257, #363, #227 ) ;
#81 = LINE ( 'NONE', #27, #234 ) ;
#82 = AXIS2_PLACEMENT_3D ( 'NONE', #131, #191, #272 ) ;
#83 = EDGE_LOOP ( 'NONE', ( #264, #190 ) ) ;
#84 = LINE ( 'NONE', #229, #328 ) ;
#85 = DATE_AND_TIME ( #5, #188 ) ;
#86 = AXIS2_PLACEMENT_3D ( 'NONE', #17, #353, #347 ) ;
#87 = VERTEX_POINT ( 'NONE', #246 ) ;
#88 = CIRCLE ( 'NONE', #139, 3.200000000000003286 ) ;
#89 = PERSON_AND_ORGANIZATION ( #123, #177 ) ;
#90 = EDGE_CURVE ( 'NONE', #144, #33, #210, .T. ) ;
#91 = SHAPE_DEFINITION_REPRESENTATION ( #108, #258 ) ;
#92 = EDGE_CURVE ( 'NONE', #87, #128, #293, .T. ) ;
#93 = APPLICATION_CONTEXT ( 'configuration controlled 3d designs of mechanical parts and assemblies' ) ;
#94 = ORIENTED_EDGE ( 'NONE', *, *, #160, .T. ) ;
#95 = DIRECTION ( 'NONE',  ( -4.275831445896958607E-31, -1.000000000000000000, -1.224646799147353207E-16 ) ) ;
#96 = ORIENTED_EDGE ( 'NONE', *, *, #360, .F. ) ;
#97 = DIRECTION ( 'NONE',  ( -3.491481338843133355E-15, 1.224646799147353207E-16, -1.000000000000000000 ) ) ;
#98 = CARTESIAN_POINT ( 'NONE',  ( -3.688735834219957169E-30, 1.114095898418278362E-31, -1.056495932881652338E-15 ) ) ;
#99 = CARTESIAN_POINT ( 'NONE',  ( 2.797103940831777906E-13, -3.200000000000013056, 80.00000000000000000 ) ) ;
#100 = CARTESIAN_POINT ( 'NONE',  ( 2.765253220363761617E-13, 3.999999999999993339, 79.20000000000000284 ) ) ;
#101 = DIRECTION ( 'NONE',  ( 3.491481338843133355E-15, -1.276467311168695266E-16, 1.000000000000000000 ) ) ;
#102 = DIRECTION ( 'NONE',  ( -3.491481338843133355E-15, 1.224646799147353207E-16, -1.000000000000000000 ) ) ;
#103 = PRODUCT ( '372749', '372749', '', ( #332 ) ) ;
#104 = CIRCLE ( 'NONE', #54, 2.999999999999996447 ) ;
#105 = ADVANCED_FACE ( 'NONE', ( #125 ), #239, .F. ) ;
#106 = CARTESIAN_POINT ( 'NONE',  ( 0.000000000000000000, 0.000000000000000000, 0.000000000000000000 ) ) ;
#107 = CARTESIAN_POINT ( 'NONE',  ( 4.898587196589394093E-16, -3.999999999999998224, -4.898587196589427620E-16 ) ) ;
#108 = PRODUCT_DEFINITION_SHAPE ( 'NONE', 'NONE',  #113 ) ;
#109 = DIRECTION ( 'NONE',  ( -2.309263891220325604E-14, -1.000000000000000000, 0.000000000000000000 ) ) ;
#110 = FACE_OUTER_BOUND ( 'NONE', #2, .T. ) ;
#111 = DIRECTION ( 'NONE',  ( -3.491481338843133355E-15, 1.276467311168695266E-16, -1.000000000000000000 ) ) ;
#112 = VECTOR ( 'NONE', #218, 1000.000000000000000 ) ;
#113 = PRODUCT_DEFINITION ( 'UNKNOWN', '', #276, #342 ) ;
#114 = SECURITY_CLASSIFICATION_LEVEL ( 'unclassified' ) ;
#115 = APPROVAL_PERSON_ORGANIZATION ( #30, #320, #262 ) ;
#116 = ORIENTED_EDGE ( 'NONE', *, *, #349, .T. ) ;
#117 = DATE_TIME_ROLE ( 'creation_date' ) ;
#118 = ORIENTED_EDGE ( 'NONE', *, *, #279, .T. ) ;
#119 = AXIS2_PLACEMENT_3D ( 'NONE', #106, #137, #357 ) ;
#120 = ADVANCED_FACE ( 'NONE', ( #37 ), #150, .T. ) ;
#121 = DATE_AND_TIME ( #231, #13 ) ;
#122 = ORIENTED_EDGE ( 'NONE', *, *, #92, .T. ) ;
#123 = PERSON ( 'UNSPECIFIED', 'UNSPECIFIED', 'UNSPECIFIED', ('UNSPECIFIED'), ('UNSPECIFIED'), ('UNSPECIFIED') ) ;
#124 = COORDINATED_UNIVERSAL_TIME_OFFSET ( 1, 0, .AHEAD. ) ;
#125 = FACE_OUTER_BOUND ( 'NONE', #83, .T. ) ;
#126 = AXIS2_PLACEMENT_3D ( 'NONE', #20, #47, #274 ) ;
#127 = CC_DESIGN_PERSON_AND_ORGANIZATION_ASSIGNMENT ( #265, #176, ( #276 ) ) ;
#128 = VERTEX_POINT ( 'NONE', #77 ) ;
#129 = ORIENTED_EDGE ( 'NONE', *, *, #352, .T. ) ;
#130 = EDGE_CURVE ( 'NONE', #185, #207, #170, .T. ) ;
#131 = CARTESIAN_POINT ( 'NONE',  ( 2.793185071074506684E-13, -9.797174393178826052E-15, 80.00000000000000000 ) ) ;
#132 = AXIS2_PLACEMENT_3D ( 'NONE', #168, #248, #194 ) ;
#133 = DIRECTION ( 'NONE',  ( 3.491481338843133355E-15, -1.276467311168695266E-16, 1.000000000000000000 ) ) ;
#134 = CARTESIAN_POINT ( 'NONE',  ( -6.413839710158237013E-31, 0.000000000000000000, -1.836996703606440502E-16 ) ) ;
#135 = CARTESIAN_POINT ( 'NONE',  ( 7.681258945454893382E-14, -2.808228084571129683E-15, 22.00000000000000000 ) ) ;
#136 = DIRECTION ( 'NONE',  ( -3.491481338843133355E-15, 1.276467311168695266E-16, -1.000000000000000000 ) ) ;
#137 = DIRECTION ( 'NONE',  ( -3.491481338843133355E-15, 1.224646799147353207E-16, -1.000000000000000000 ) ) ;
#138 = CARTESIAN_POINT ( 'NONE',  ( 2.765253220363761617E-13, -9.699202649247037618E-15, 79.20000000000000284 ) ) ;
#139 = AXIS2_PLACEMENT_3D ( 'NONE', #251, #140, #255 ) ;
#140 = DIRECTION ( 'NONE',  ( -3.491481338843133355E-15, 1.224646799147353207E-16, -1.000000000000000000 ) ) ;
#141 = CARTESIAN_POINT ( 'NONE',  ( -6.413839710158237013E-31, 0.000000000000000000, -1.836996703606440502E-16 ) ) ;
#142 = PERSON_AND_ORGANIZATION_ROLE ( 'design_owner' ) ;
#143 = AXIS2_PLACEMENT_3D ( 'NONE', #253, #275, #24 ) ;
#144 = VERTEX_POINT ( 'NONE', #100 ) ;
#145 = APPROVAL_STATUS ( 'not_yet_approved' ) ;
#146 = ADVANCED_FACE ( 'NONE', ( #358 ), #250, .T. ) ;
#147 = ORIENTED_EDGE ( 'NONE', *, *, #213, .T. ) ;
#148 = ADVANCED_FACE ( 'NONE', ( #110 ), #198, .T. ) ;
#149 = ORIENTED_EDGE ( 'NONE', *, *, #224, .F. ) ;
#150 = CONICAL_SURFACE ( 'NONE', #157, 3.200000000000003286, 0.7853981633974510546 ) ;
#151 = ORIENTED_EDGE ( 'NONE', *, *, #254, .T. ) ;
#152 = APPROVAL_STATUS ( 'not_yet_approved' ) ;
#153 = APPLICATION_CONTEXT ( 'configuration controlled 3d designs of mechanical parts and assemblies' ) ;
#154 = CARTESIAN_POINT ( 'NONE',  ( 2.783627874196064465E-13, -3.200000000000013056, 80.00000000000000000 ) ) ;
#155 = CC_DESIGN_DATE_AND_TIME_ASSIGNMENT ( #121, #58, ( #354 ) ) ;
#156 = CARTESIAN_POINT ( 'NONE',  ( 2.793185071074506684E-13, -9.797174393178826052E-15, 80.00000000000000000 ) ) ;
#157 = AXIS2_PLACEMENT_3D ( 'NONE', #156, #102, #52 ) ;
#158 = LOCAL_TIME ( 9, 9, 6.000000000000000000, #338 ) ;
#159 = DIRECTION ( 'NONE',  ( 0.000000000000000000, -1.000000000000000000, 0.000000000000000000 ) ) ;
#160 = EDGE_CURVE ( 'NONE', #31, #172, #75, .T. ) ;
#161 = DIRECTION ( 'NONE',  ( -3.491481338843133355E-15, 1.224646799147353207E-16, -1.000000000000000000 ) ) ;
#162 = ADVANCED_FACE ( 'NONE', ( #193 ), #283, .T. ) ;
#163 = VERTEX_POINT ( 'NONE', #303 ) ;
#164 = CIRCLE ( 'NONE', #126, 2.999999999999998224 ) ;
#165 = DIRECTION ( 'NONE',  ( 0.000000000000000000, 1.000000000000000000, 0.000000000000000000 ) ) ;
#166 = CARTESIAN_POINT ( 'NONE',  ( 8.984297520479005772E-14, -3.284612170519367427E-15, 25.73205080756886076 ) ) ;
#167 = DIRECTION ( 'NONE',  ( -3.491481338843133355E-15, 1.224646799147353207E-16, -1.000000000000000000 ) ) ;
#168 = CARTESIAN_POINT ( 'NONE',  ( 7.681258945454893382E-14, -2.808228084571129683E-15, 22.00000000000000000 ) ) ;
#169 = DIRECTION ( 'NONE',  ( -3.491481338843133355E-15, 1.224646799147353207E-16, -1.000000000000000000 ) ) ;
#170 = LINE ( 'NONE', #107, #6 ) ;
#171 = APPLICATION_PROTOCOL_DEFINITION ( 'international standard', 'config_control_design', 1994, #153 ) ;
#172 = VERTEX_POINT ( 'NONE', #79 ) ;
#173 = COORDINATED_UNIVERSAL_TIME_OFFSET ( 1, 0, .AHEAD. ) ;
#174 = AXIS2_PLACEMENT_3D ( 'NONE', #141, #356, #299 ) ;
#175 = COORDINATED_UNIVERSAL_TIME_OFFSET ( 1, 0, .AHEAD. ) ;
#176 = PERSON_AND_ORGANIZATION_ROLE ( 'design_supplier' ) ;
#177 = ORGANIZATION ( 'UNSPECIFIED', 'UNSPECIFIED', '' ) ;
#178 = ORIENTED_EDGE ( 'NONE', *, *, #78, .T. ) ;
#179 = DATE_AND_TIME ( #3, #158 ) ;
#180 = VECTOR ( 'NONE', #270, 1000.000000000000000 ) ;
#181 = EDGE_CURVE ( 'NONE', #87, #163, #359, .T. ) ;
#182 = MANIFOLD_SOLID_BREP ( 'Corps-Déplacer/Copier1[1]', #38 ) ;
#183 = DIRECTION ( 'NONE',  ( 3.491481338843133355E-15, -1.224646799147353207E-16, 1.000000000000000000 ) ) ;
#184 = ADVANCED_FACE ( 'NONE', ( #329 ), #28, .T. ) ;
#185 = VERTEX_POINT ( 'NONE', #74 ) ;
#186 = VECTOR ( 'NONE', #97, 1000.000000000000000 ) ;
#187 = AXIS2_PLACEMENT_3D ( 'NONE', #135, #197, #55 ) ;
#188 = LOCAL_TIME ( 9, 9, 6.000000000000000000, #175 ) ;
#189 = EDGE_LOOP ( 'NONE', ( #322, #230, #96, #263 ) ) ;
#190 = ORIENTED_EDGE ( 'NONE', *, *, #92, .F. ) ;
#191 = DIRECTION ( 'NONE',  ( -3.491481338843133355E-15, 1.224646799147353207E-16, -1.000000000000000000 ) ) ;
#192 = AXIS2_PLACEMENT_3D ( 'NONE', #222, #225, #44 ) ;
#193 = FACE_OUTER_BOUND ( 'NONE', #189, .T. ) ;
#194 = DIRECTION ( 'NONE',  ( 0.000000000000000000, -1.000000000000000000, 0.000000000000000000 ) ) ;
#195 = CARTESIAN_POINT ( 'NONE',  ( 7.681258945454893382E-14, 2.999519565323707005E-32, 22.00000000000000000 ) ) ;
#196 = CARTESIAN_POINT ( 'NONE',  ( 2.765253220363761617E-13, -9.699202649247037618E-15, 79.20000000000000284 ) ) ;
#197 = DIRECTION ( 'NONE',  ( 3.491481338843133355E-15, -1.276467311168695266E-16, 1.000000000000000000 ) ) ;
#198 = CONICAL_SURFACE ( 'NONE', #192, 7.999999999999998224, 0.2617993877991502405 ) ;
#199 = CC_DESIGN_APPROVAL ( #261, ( #354 ) ) ;
#200 = PERSON_AND_ORGANIZATION ( #123, #177 ) ;
#201 = VERTEX_POINT ( 'NONE', #327 ) ;
#202 = PLANE ( 'NONE',  #260 ) ;
#203 = ORIENTED_EDGE ( 'NONE', *, *, #25, .T. ) ;
#204 = APPROVAL_DATE_TIME ( #85, #261 ) ;
#205 = ORIENTED_EDGE ( 'NONE', *, *, #90, .T. ) ;
#206 = PERSON_AND_ORGANIZATION ( #123, #177 ) ;
#207 = VERTEX_POINT ( 'NONE', #331 ) ;
#208 = UNCERTAINTY_MEASURE_WITH_UNIT (LENGTH_MEASURE( 1.000000000000000082E-05 ), #223, 'distance_accuracy_value', 'NONE');
#209 = EDGE_LOOP ( 'NONE', ( #341, #43, #205, #215 ) ) ;
#210 = LINE ( 'NONE', #10, #186 ) ;
#211 = EDGE_CURVE ( 'NONE', #144, #185, #68, .T. ) ;
#212 = ORIENTED_EDGE ( 'NONE', *, *, #254, .F. ) ;
#213 = EDGE_CURVE ( 'NONE', #207, #33, #11, .T. ) ;
#214 = VERTEX_POINT ( 'NONE', #300 ) ;
#215 = ORIENTED_EDGE ( 'NONE', *, *, #213, .F. ) ;
#216 = LINE ( 'NONE', #350, #19 ) ;
#217 = CC_DESIGN_DATE_AND_TIME_ASSIGNMENT ( #314, #117, ( #113 ) ) ;
#218 = DIRECTION ( 'NONE',  ( 3.491481338843133355E-15, -1.276467311168695266E-16, 1.000000000000000000 ) ) ;
#219 = CARTESIAN_POINT ( 'NONE',  ( 3.673940397442063319E-16, 2.999999999999997335, 1.992405229899629517E-16 ) ) ;
#220 = EDGE_CURVE ( 'NONE', #185, #144, #280, .T. ) ;
#221 = CARTESIAN_POINT ( 'NONE',  ( 2.793185071074506684E-13, 2.399615652258959583E-32, 80.00000000000000000 ) ) ;
#222 = CARTESIAN_POINT ( 'NONE',  ( 1.419645182057546291E-13, -5.190148514312322742E-15, 40.66025403784432513 ) ) ;
#223 =( LENGTH_UNIT ( ) NAMED_UNIT ( * ) SI_UNIT ( .MILLI., .METRE. ) );
#224 = EDGE_CURVE ( 'NONE', #163, #201, #164, .T. ) ;
#225 = DIRECTION ( 'NONE',  ( 3.491481338843133355E-15, -1.276467311168695266E-16, 1.000000000000000000 ) ) ;
#226 = CC_DESIGN_APPROVAL ( #46, ( #113 ) ) ;
#227 = DIRECTION ( 'NONE',  ( 1.000000000000000000, 0.000000000000000000, 0.000000000000000000 ) ) ;
#228 = AXIS2_PLACEMENT_3D ( 'NONE', #65, #183, #95 ) ;
#229 = CARTESIAN_POINT ( 'NONE',  ( 1.419645182057546291E-13, -8.000000000000003553, 40.66025403784432513 ) ) ;
#230 = ORIENTED_EDGE ( 'NONE', *, *, #181, .T. ) ;
#231 = CALENDAR_DATE ( 2023, 31, 3 ) ;
#232 = EDGE_LOOP ( 'NONE', ( #325, #122, #118, #149 ) ) ;
#233 = APPROVAL_DATE_TIME ( #288, #46 ) ;
#234 = VECTOR ( 'NONE', #330, 1000.000000000000000 ) ;
#235 = ORIENTED_EDGE ( 'NONE', *, *, #220, .F. ) ;
#236 = PERSON_AND_ORGANIZATION ( #123, #177 ) ;
#237 = EDGE_LOOP ( 'NONE', ( #319, #336 ) ) ;
#238 = APPROVAL_ROLE ( '' ) ;
#239 = PLANE ( 'NONE',  #228 ) ;
#240 = AXIS2_PLACEMENT_3D ( 'NONE', #195, #282, #333 ) ;
#241 = CARTESIAN_POINT ( 'NONE',  ( 1.419645182057546291E-13, -5.190148514312322742E-15, 40.66025403784432513 ) ) ;
#242 = ADVANCED_FACE ( 'NONE', ( #21 ), #202, .F. ) ;
#243 = DIRECTION ( 'NONE',  ( 0.000000000000000000, 1.000000000000000000, 0.000000000000000000 ) ) ;
#244 = EDGE_LOOP ( 'NONE', ( #326, #178, #317, #235 ) ) ;
#245 = CIRCLE ( 'NONE', #39, 3.200000000000003286 ) ;
#246 = CARTESIAN_POINT ( 'NONE',  ( 3.877368876701867866E-14, 2.999999999999996447, -6.735557395311796892E-16 ) ) ;
#247 = ADVANCED_FACE ( 'NONE', ( #304 ), #23, .T. ) ;
#248 = DIRECTION ( 'NONE',  ( 3.491481338843133355E-15, -1.276467311168695266E-16, 1.000000000000000000 ) ) ;
#249 = CARTESIAN_POINT ( 'NONE',  ( 7.681258945454893382E-14, -2.808228084571129683E-15, 22.00000000000000000 ) ) ;
#250 = CYLINDRICAL_SURFACE ( 'NONE', #143, 3.999999999999998224 ) ;
#251 = CARTESIAN_POINT ( 'NONE',  ( 2.793185071074506684E-13, -9.797174393178826052E-15, 80.00000000000000000 ) ) ;
#252 = CC_DESIGN_SECURITY_CLASSIFICATION ( #354, ( #276 ) ) ;
#253 = CARTESIAN_POINT ( 'NONE',  ( 0.000000000000000000, 0.000000000000000000, 0.000000000000000000 ) ) ;
#254 = EDGE_CURVE ( 'NONE', #31, #207, #84, .T. ) ;
#255 = DIRECTION ( 'NONE',  ( 0.000000000000000000, 1.000000000000000000, 0.000000000000000000 ) ) ;
#256 = DIRECTION ( 'NONE',  ( -3.491481338843133355E-15, 1.224646799147353207E-16, -1.000000000000000000 ) ) ;
#257 = CARTESIAN_POINT ( 'NONE',  ( 0.000000000000000000, 0.000000000000000000, 0.000000000000000000 ) ) ;
#258 = ADVANCED_BREP_SHAPE_REPRESENTATION ( '372749', ( #182, #301, #80 ), #351 ) ;
#259 =( NAMED_UNIT ( * ) SI_UNIT ( $, .STERADIAN. ) SOLID_ANGLE_UNIT ( ) );
#260 = AXIS2_PLACEMENT_3D ( 'NONE', #221, #169, #308 ) ;
#261 = APPROVAL ( #152, 'UNSPECIFIED' ) ;
#262 = APPROVAL_ROLE ( '' ) ;
#263 = ORIENTED_EDGE ( 'NONE', *, *, #279, .F. ) ;
#264 = ORIENTED_EDGE ( 'NONE', *, *, #16, .F. ) ;
#265 = PERSON_AND_ORGANIZATION ( #123, #177 ) ;
#266 = COORDINATED_UNIVERSAL_TIME_OFFSET ( 1, 0, .AHEAD. ) ;
#267 = CARTESIAN_POINT ( 'NONE',  ( 2.793185071074506684E-13, -9.797174393178826052E-15, 80.00000000000000000 ) ) ;
#268 = CARTESIAN_POINT ( 'NONE',  ( 1.831841486205832107E-13, 3.999999999999994671, 25.73205080756886076 ) ) ;
#269 = AXIS2_PLACEMENT_3D ( 'NONE', #273, #136, #278 ) ;
#270 = DIRECTION ( 'NONE',  ( -2.382254525458709186E-15, -0.7071067811865493491, -0.7071067811865456854 ) ) ;
#271 = DIRECTION ( 'NONE',  ( -4.275831445896958607E-31, -1.000000000000000000, -1.224646799147353207E-16 ) ) ;
#272 = DIRECTION ( 'NONE',  ( 0.000000000000000000, 1.000000000000000000, 0.000000000000000000 ) ) ;
#273 = CARTESIAN_POINT ( 'NONE',  ( 8.984297520479005772E-14, -3.284612170519367427E-15, 25.73205080756886076 ) ) ;
#274 = DIRECTION ( 'NONE',  ( 0.000000000000000000, -1.000000000000000000, 0.000000000000000000 ) ) ;
#275 = DIRECTION ( 'NONE',  ( -3.491481338843133355E-15, 1.224646799147353207E-16, -1.000000000000000000 ) ) ;
#276 = PRODUCT_DEFINITION_FORMATION_WITH_SPECIFIED_SOURCE ( 'ANY', '', #103, .NOT_KNOWN. ) ;
#277 = DIRECTION ( 'NONE',  ( 3.491481338843133355E-15, -1.276467311168695266E-16, 1.000000000000000000 ) ) ;
#278 = DIRECTION ( 'NONE',  ( 0.000000000000000000, -1.000000000000000000, 0.000000000000000000 ) ) ;
#279 = EDGE_CURVE ( 'NONE', #128, #201, #51, .T. ) ;
#280 = CIRCLE ( 'NONE', #318, 4.000000000000002665 ) ;
#281 = CIRCLE ( 'NONE', #324, 2.999999999999998224 ) ;
#282 = DIRECTION ( 'NONE',  ( 3.491481338843133355E-15, -1.224646799147353207E-16, 1.000000000000000000 ) ) ;
#283 = CYLINDRICAL_SURFACE ( 'NONE', #174, 2.999999999999997335 ) ;
#284 = CARTESIAN_POINT ( 'NONE',  ( -1.978412509992453811E-30, -2.999999999999997335, -5.666398637112522355E-16 ) ) ;
#285 = CC_DESIGN_PERSON_AND_ORGANIZATION_ASSIGNMENT ( #206, #60, ( #354 ) ) ;
#286 = PERSON_AND_ORGANIZATION ( #123, #177 ) ;
#287 = AXIS2_PLACEMENT_3D ( 'NONE', #134, #22, #49 ) ;
#288 = DATE_AND_TIME ( #57, #290 ) ;
#289 = ORIENTED_EDGE ( 'NONE', *, *, #352, .F. ) ;
#290 = LOCAL_TIME ( 9, 9, 6.000000000000000000, #173 ) ;
#291 = EDGE_LOOP ( 'NONE', ( #348, #310 ) ) ;
#292 = PERSON_AND_ORGANIZATION_ROLE ( 'creator' ) ;
#293 = CIRCLE ( 'NONE', #86, 2.999999999999996447 ) ;
#294 = PLANE ( 'NONE',  #339 ) ;
#295 = FACE_OUTER_BOUND ( 'NONE', #4, .T. ) ;
#296 = CIRCLE ( 'NONE', #69, 3.999999999999998224 ) ;
#297 = DIRECTION ( 'NONE',  ( -4.456761796588770537E-31, -1.000000000000000000, -1.276467311168695266E-16 ) ) ;
#298 = ORIENTED_EDGE ( 'NONE', *, *, #160, .F. ) ;
#299 = DIRECTION ( 'NONE',  ( -4.456761796588770537E-31, -1.000000000000000000, -1.276467311168695266E-16 ) ) ;
#300 = CARTESIAN_POINT ( 'NONE',  ( 2.793185071074506684E-13, 3.199999999999993072, 80.00000000000000000 ) ) ;
#301 = MANIFOLD_SOLID_BREP ( 'Corps-Déplacer/Copier1[2]', #313 ) ;
#302 = DIRECTION ( 'NONE',  ( 0.000000000000000000, -1.000000000000000000, 0.000000000000000000 ) ) ;
#303 = CARTESIAN_POINT ( 'NONE',  ( 3.877368876701866604E-14, 2.999999999999996003, 22.00000000000000000 ) ) ;
#304 = FACE_OUTER_BOUND ( 'NONE', #237, .T. ) ;
#305 = DIRECTION ( 'NONE',  ( 0.000000000000000000, 1.000000000000000000, 0.000000000000000000 ) ) ;
#306 = CONICAL_SURFACE ( 'NONE', #45, 7.999999999999998224, 0.2617993877991502405 ) ;
#307 =( NAMED_UNIT ( * ) PLANE_ANGLE_UNIT ( ) SI_UNIT ( $, .RADIAN. ) );
#308 = DIRECTION ( 'NONE',  ( 4.275831445896958607E-31, 1.000000000000000000, 1.224646799147353207E-16 ) ) ;
#309 = PRODUCT_RELATED_PRODUCT_CATEGORY ( 'detail', '', ( #103 ) ) ;
#310 = ORIENTED_EDGE ( 'NONE', *, *, #78, .F. ) ;
#311 = FACE_OUTER_BOUND ( 'NONE', #209, .T. ) ;
#312 = ADVANCED_FACE ( 'NONE', ( #311 ), #48, .T. ) ;
#313 = CLOSED_SHELL ( 'NONE', ( #162, #247, #184, #105 ) ) ;
#314 = DATE_AND_TIME ( #345, #32 ) ;
#315 = EDGE_CURVE ( 'NONE', #172, #33, #81, .T. ) ;
#316 = ORIENTED_EDGE ( 'NONE', *, *, #130, .T. ) ;
#317 = ORIENTED_EDGE ( 'NONE', *, *, #61, .T. ) ;
#318 = AXIS2_PLACEMENT_3D ( 'NONE', #138, #362, #165 ) ;
#319 = ORIENTED_EDGE ( 'NONE', *, *, #360, .T. ) ;
#320 = APPROVAL ( #145, 'UNSPECIFIED' ) ;
#321 = LINE ( 'NONE', #99, #180 ) ;
#322 = ORIENTED_EDGE ( 'NONE', *, *, #16, .T. ) ;
#323 = CONICAL_SURFACE ( 'NONE', #82, 3.200000000000003286, 0.7853981633974510546 ) ;
#324 = AXIS2_PLACEMENT_3D ( 'NONE', #249, #101, #302 ) ;
#325 = ORIENTED_EDGE ( 'NONE', *, *, #181, .F. ) ;
#326 = ORIENTED_EDGE ( 'NONE', *, *, #25, .F. ) ;
#327 = CARTESIAN_POINT ( 'NONE',  ( 7.681258945454893382E-14, -3.000000000000000888, 22.00000000000000000 ) ) ;
#328 = VECTOR ( 'NONE', #361, 1000.000000000000114 ) ;
#329 = FACE_OUTER_BOUND ( 'NONE', #232, .T. ) ;
#330 = DIRECTION ( 'NONE',  ( 3.404208188709233130E-15, 0.2588190451025214056, 0.9659258262890680902 ) ) ;
#331 = CARTESIAN_POINT ( 'NONE',  ( 1.836740073402420503E-13, -4.000000000000001776, 25.73205080756886076 ) ) ;
#332 = MECHANICAL_CONTEXT ( 'NONE', #153, 'mechanical' ) ;
#333 = DIRECTION ( 'NONE',  ( -4.275831445896958607E-31, -1.000000000000000000, -1.224646799147353207E-16 ) ) ;
#334 = EDGE_LOOP ( 'NONE', ( #298, #289 ) ) ;
#335 = APPROVAL_ROLE ( '' ) ;
#336 = ORIENTED_EDGE ( 'NONE', *, *, #224, .T. ) ;
#337 = EDGE_CURVE ( 'NONE', #33, #207, #296, .T. ) ;
#338 = COORDINATED_UNIVERSAL_TIME_OFFSET ( 1, 0, .AHEAD. ) ;
#339 = AXIS2_PLACEMENT_3D ( 'NONE', #12, #42, #271 ) ;
#340 = CIRCLE ( 'NONE', #187, 2.999999999999998224 ) ;
#341 = ORIENTED_EDGE ( 'NONE', *, *, #130, .F. ) ;
#342 = DESIGN_CONTEXT ( 'detailed design', #93, 'design' ) ;
#343 = APPROVAL_STATUS ( 'not_yet_approved' ) ;
#344 = ORIENTED_EDGE ( 'NONE', *, *, #90, .F. ) ;
#345 = CALENDAR_DATE ( 2023, 31, 3 ) ;
#346 = CC_DESIGN_PERSON_AND_ORGANIZATION_ASSIGNMENT ( #89, #292, ( #276 ) ) ;
#347 = DIRECTION ( 'NONE',  ( -4.456761796588770537E-31, -1.000000000000000000, -1.276467311168695266E-16 ) ) ;
#348 = ORIENTED_EDGE ( 'NONE', *, *, #349, .F. ) ;
#349 = EDGE_CURVE ( 'NONE', #214, #56, #88, .T. ) ;
#350 = CARTESIAN_POINT ( 'NONE',  ( 2.793185071074506684E-13, 3.199999999999993072, 80.00000000000000000 ) ) ;
#351 =( GEOMETRIC_REPRESENTATION_CONTEXT ( 3 ) GLOBAL_UNCERTAINTY_ASSIGNED_CONTEXT ( ( #208 ) ) GLOBAL_UNIT_ASSIGNED_CONTEXT ( ( #223, #307, #259 ) ) REPRESENTATION_CONTEXT ( 'NONE', 'WORKASPACE' ) );
#352 = EDGE_CURVE ( 'NONE', #172, #31, #340, .T. ) ;
#353 = DIRECTION ( 'NONE',  ( 3.491481338843133355E-15, -1.276467311168695266E-16, 1.000000000000000000 ) ) ;
#354 = SECURITY_CLASSIFICATION ( '', '', #114 ) ;
#355 = EDGE_LOOP ( 'NONE', ( #59, #316, #7, #344 ) ) ;
#356 = DIRECTION ( 'NONE',  ( 3.491481338843133355E-15, -1.276467311168695266E-16, 1.000000000000000000 ) ) ;
#357 = DIRECTION ( 'NONE',  ( 4.275831445896958607E-31, 1.000000000000000000, 1.224646799147353207E-16 ) ) ;
#358 = FACE_OUTER_BOUND ( 'NONE', #355, .T. ) ;
#359 = LINE ( 'NONE', #219, #112 ) ;
#360 = EDGE_CURVE ( 'NONE', #201, #163, #281, .T. ) ;
#361 = DIRECTION ( 'NONE',  ( 3.372511997194914833E-15, -0.2588190451025215721, 0.9659258262890679791 ) ) ;
#362 = DIRECTION ( 'NONE',  ( -3.491481338843133355E-15, 1.224646799147353207E-16, -1.000000000000000000 ) ) ;
#363 = DIRECTION ( 'NONE',  ( 0.000000000000000000, 0.000000000000000000, 1.000000000000000000 ) ) ;
ENDSEC;
END-ISO-10303-21;
