ISO-10303-21;
HEADER;
FILE_DESCRIPTION (( 'STEP AP203' ),
    '1' );
FILE_NAME ('372748.step',
    '2023-03-31T07:09:06',
    ( '' ),
    ( '' ),
    'SwSTEP 2.0',
    'SolidWorks 2022',
    '' );
FILE_SCHEMA (( 'CONFIG_CONTROL_DESIGN' ));
ENDSEC;

DATA;
#1 = PERSON_AND_ORGANIZATION ( #325, #323 ) ;
#2 = CIRCLE ( 'NONE', #134, 2.999999999999996447 ) ;
#3 = DIRECTION ( 'NONE',  ( 0.000000000000000000, 1.000000000000000000, 0.000000000000000000 ) ) ;
#4 = FACE_OUTER_BOUND ( 'NONE', #164, .T. ) ;
#5 = DIRECTION ( 'NONE',  ( -3.491481338843133355E-15, 1.276467311168695266E-16, -1.000000000000000000 ) ) ;
#6 = AXIS2_PLACEMENT_3D ( 'NONE', #190, #89, #85 ) ;
#7 = DIRECTION ( 'NONE',  ( -2.382254525458710370E-15, -0.7071067811865491270, -0.7071067811865459074 ) ) ;
#8 = DIRECTION ( 'NONE',  ( 0.000000000000000000, 1.000000000000000000, 0.000000000000000000 ) ) ;
#9 = CARTESIAN_POINT ( 'NONE',  ( -6.413786353521998128E-31, 2.249653418127172114E-32, -1.836981421658447292E-16 ) ) ;
#10 = CARTESIAN_POINT ( 'NONE',  ( -6.413839710158237013E-31, 0.000000000000000000, -1.836996703606440502E-16 ) ) ;
#11 = ORIENTED_EDGE ( 'NONE', *, *, #341, .T. ) ;
#12 = APPROVAL_STATUS ( 'not_yet_approved' ) ;
#13 = CARTESIAN_POINT ( 'NONE',  ( -6.413839710158237013E-31, 0.000000000000000000, -1.836996703606440502E-16 ) ) ;
#14 = EDGE_CURVE ( 'NONE', #49, #328, #83, .T. ) ;
#15 = APPROVAL_ROLE ( '' ) ;
#16 = ORIENTED_EDGE ( 'NONE', *, *, #283, .T. ) ;
#17 = ORIENTED_EDGE ( 'NONE', *, *, #181, .T. ) ;
#18 = AXIS2_PLACEMENT_3D ( 'NONE', #100, #199, #8 ) ;
#19 = CARTESIAN_POINT ( 'NONE',  ( 1.070497048173232955E-13, -3.913681203143627969E-15, 30.66025403784432513 ) ) ;
#20 = ORIENTED_EDGE ( 'NONE', *, *, #311, .T. ) ;
#21 = DIRECTION ( 'NONE',  ( 0.000000000000000000, 0.000000000000000000, 1.000000000000000000 ) ) ;
#22 = APPROVAL ( #88, 'UNSPECIFIED' ) ;
#23 = CIRCLE ( 'NONE', #265, 2.999999999999995559 ) ;
#24 = ADVANCED_FACE ( 'NONE', ( #48 ), #210, .T. ) ;
#25 = PRODUCT_DEFINITION_FORMATION_WITH_SPECIFIED_SOURCE ( 'ANY', '', #34, .NOT_KNOWN. ) ;
#26 = ADVANCED_FACE ( 'NONE', ( #207 ), #320, .T. ) ;
#27 = DESIGN_CONTEXT ( 'detailed design', #233, 'design' ) ;
#28 = DIRECTION ( 'NONE',  ( 3.491481338843133355E-15, -1.276467311168695266E-16, 1.000000000000000000 ) ) ;
#29 = APPROVAL_DATE_TIME ( #251, #231 ) ;
#30 = CARTESIAN_POINT ( 'NONE',  ( 4.189777606611760026E-14, 2.999519565323707552E-32, 12.00000000000000000 ) ) ;
#31 =( LENGTH_UNIT ( ) NAMED_UNIT ( * ) SI_UNIT ( .MILLI., .METRE. ) );
#32 = VECTOR ( 'NONE', #308, 1000.000000000000000 ) ;
#33 = CARTESIAN_POINT ( 'NONE',  ( 2.094888803305880013E-13, 2.399615652258959856E-32, 60.00000000000000000 ) ) ;
#34 = PRODUCT ( '372748', '372748', '', ( #108 ) ) ;
#35 = ORIENTED_EDGE ( 'NONE', *, *, #309, .T. ) ;
#36 = DIRECTION ( 'NONE',  ( -3.491481338843133355E-15, 1.224646799147353207E-16, -1.000000000000000000 ) ) ;
#37 = ORIENTED_EDGE ( 'NONE', *, *, #273, .F. ) ;
#38 = DIRECTION ( 'NONE',  ( -4.456761796588771413E-31, -1.000000000000000000, -1.276467311168695266E-16 ) ) ;
#39 = CC_DESIGN_PERSON_AND_ORGANIZATION_ASSIGNMENT ( #1, #189, ( #25 ) ) ;
#40 = AXIS2_PLACEMENT_3D ( 'NONE', #80, #21, #113 ) ;
#41 = CARTESIAN_POINT ( 'NONE',  ( 2.131628207280300558E-14, 2.999999999999993783, 12.00000000000000000 ) ) ;
#42 = FACE_OUTER_BOUND ( 'NONE', #280, .T. ) ;
#43 = DIRECTION ( 'NONE',  ( -3.491481338843133355E-15, 1.224646799147353207E-16, -1.000000000000000000 ) ) ;
#44 = VECTOR ( 'NONE', #205, 1000.000000000000114 ) ;
#45 = AXIS2_PLACEMENT_3D ( 'NONE', #211, #243, #107 ) ;
#46 = ORIENTED_EDGE ( 'NONE', *, *, #271, .F. ) ;
#47 = CALENDAR_DATE ( 2023, 31, 3 ) ;
#48 = FACE_OUTER_BOUND ( 'NONE', #330, .T. ) ;
#49 = VERTEX_POINT ( 'NONE', #326 ) ;
#50 = EDGE_LOOP ( 'NONE', ( #307, #16, #157, #214 ) ) ;
#51 = ORIENTED_EDGE ( 'NONE', *, *, #273, .T. ) ;
#52 = ADVANCED_FACE ( 'NONE', ( #291 ), #74, .T. ) ;
#53 = VECTOR ( 'NONE', #7, 1000.000000000000000 ) ;
#54 = PLANE ( 'NONE',  #204 ) ;
#55 = DATE_AND_TIME ( #303, #274 ) ;
#56 = CARTESIAN_POINT ( 'NONE',  ( 2.066956952595134946E-13, -7.249909050952329922E-15, 59.20000000000000284 ) ) ;
#57 =( NAMED_UNIT ( * ) PLANE_ANGLE_UNIT ( ) SI_UNIT ( $, .RADIAN. ) );
#58 = PRODUCT_DEFINITION_SHAPE ( 'NONE', 'NONE',  #321 ) ;
#59 = DIRECTION ( 'NONE',  ( 3.404208188709233130E-15, 0.2588190451025213501, 0.9659258262890680902 ) ) ;
#60 = AXIS2_PLACEMENT_3D ( 'NONE', #252, #144, #112 ) ;
#61 = DIRECTION ( 'NONE',  ( -4.275831445896958607E-31, -1.000000000000000000, -1.224646799147353207E-16 ) ) ;
#62 = ORIENTED_EDGE ( 'NONE', *, *, #249, .F. ) ;
#63 = LINE ( 'NONE', #276, #77 ) ;
#64 = CC_DESIGN_PERSON_AND_ORGANIZATION_ASSIGNMENT ( #275, #220, ( #321 ) ) ;
#65 = CYLINDRICAL_SURFACE ( 'NONE', #70, 2.999999999999996003 ) ;
#66 = FACE_OUTER_BOUND ( 'NONE', #50, .T. ) ;
#67 = DIRECTION ( 'NONE',  ( 3.491481338843133355E-15, -1.276467311168695266E-16, 1.000000000000000000 ) ) ;
#68 = DIRECTION ( 'NONE',  ( -4.456761796588771413E-31, -1.000000000000000000, -1.276467311168695266E-16 ) ) ;
#69 = APPROVAL_DATE_TIME ( #75, #200 ) ;
#70 = AXIS2_PLACEMENT_3D ( 'NONE', #10, #178, #38 ) ;
#71 = SECURITY_CLASSIFICATION ( '', '', #187 ) ;
#72 = ORIENTED_EDGE ( 'NONE', *, *, #311, .F. ) ;
#73 = PERSON_AND_ORGANIZATION ( #325, #323 ) ;
#74 = CYLINDRICAL_SURFACE ( 'NONE', #335, 3.999999999999994671 ) ;
#75 = DATE_AND_TIME ( #47, #293 ) ;
#76 = ORIENTED_EDGE ( 'NONE', *, *, #95, .T. ) ;
#77 = VECTOR ( 'NONE', #28, 1000.000000000000000 ) ;
#78 = EDGE_LOOP ( 'NONE', ( #76, #91, #37, #270 ) ) ;
#79 = ADVANCED_FACE ( 'NONE', ( #317 ), #222, .T. ) ;
#80 = CARTESIAN_POINT ( 'NONE',  ( 0.000000000000000000, 0.000000000000000000, 0.000000000000000000 ) ) ;
#81 = FACE_OUTER_BOUND ( 'NONE', #298, .T. ) ;
#82 = DATE_TIME_ROLE ( 'creation_date' ) ;
#83 = CIRCLE ( 'NONE', #45, 3.199999999999998401 ) ;
#84 = AXIS2_PLACEMENT_3D ( 'NONE', #224, #193, #171 ) ;
#85 = DIRECTION ( 'NONE',  ( -4.456761796588770537E-31, -1.000000000000000000, -1.276467311168695266E-16 ) ) ;
#86 = CALENDAR_DATE ( 2023, 31, 3 ) ;
#87 = LINE ( 'NONE', #342, #155 ) ;
#88 = APPROVAL_STATUS ( 'not_yet_approved' ) ;
#89 = DIRECTION ( 'NONE',  ( 3.491481338843133355E-15, -1.276467311168695266E-16, 1.000000000000000000 ) ) ;
#90 = AXIS2_PLACEMENT_3D ( 'NONE', #93, #279, #332 ) ;
#91 = ORIENTED_EDGE ( 'NONE', *, *, #361, .T. ) ;
#92 = APPROVAL_PERSON_ORGANIZATION ( #73, #200, #15 ) ;
#93 = CARTESIAN_POINT ( 'NONE',  ( 4.189777606611760026E-14, -1.531760773402434319E-15, 12.00000000000000000 ) ) ;
#94 = EDGE_CURVE ( 'NONE', #286, #131, #349, .T. ) ;
#95 = EDGE_CURVE ( 'NONE', #286, #185, #2, .T. ) ;
#96 = CARTESIAN_POINT ( 'NONE',  ( 2.094888803305880013E-13, 3.199999999999990852, 60.00000000000000000 ) ) ;
#97 = ADVANCED_FACE ( 'NONE', ( #263 ), #115, .T. ) ;
#98 = CARTESIAN_POINT ( 'NONE',  ( 0.000000000000000000, 0.000000000000000000, 0.000000000000000000 ) ) ;
#99 = CIRCLE ( 'NONE', #90, 2.999999999999995559 ) ;
#100 = CARTESIAN_POINT ( 'NONE',  ( 2.094888803305880013E-13, -7.347880794884118356E-15, 60.00000000000000000 ) ) ;
#101 = DIRECTION ( 'NONE',  ( 3.491481338843133355E-15, -1.276467311168695266E-16, 1.000000000000000000 ) ) ;
#102 = ORIENTED_EDGE ( 'NONE', *, *, #123, .T. ) ;
#103 = ORIENTED_EDGE ( 'NONE', *, *, #355, .T. ) ;
#104 = CC_DESIGN_DATE_AND_TIME_ASSIGNMENT ( #300, #82, ( #321 ) ) ;
#105 = VECTOR ( 'NONE', #221, 1000.000000000000000 ) ;
#106 = ORIENTED_EDGE ( 'NONE', *, *, #158, .F. ) ;
#107 = DIRECTION ( 'NONE',  ( 0.000000000000000000, 1.000000000000000000, 0.000000000000000000 ) ) ;
#108 = MECHANICAL_CONTEXT ( 'NONE', #269, 'mechanical' ) ;
#109 = AXIS2_PLACEMENT_3D ( 'NONE', #33, #118, #228 ) ;
#110 = ADVANCED_FACE ( 'NONE', ( #262 ), #312, .T. ) ;
#111 =( NAMED_UNIT ( * ) SI_UNIT ( $, .STERADIAN. ) SOLID_ANGLE_UNIT ( ) );
#112 = DIRECTION ( 'NONE',  ( -1.953992523340275511E-14, -1.000000000000000000, 0.000000000000000000 ) ) ;
#113 = DIRECTION ( 'NONE',  ( 1.000000000000000000, 0.000000000000000000, 0.000000000000000000 ) ) ;
#114 = PLANE ( 'NONE',  #150 ) ;
#115 = CONICAL_SURFACE ( 'NONE', #242, 3.199999999999998401, 0.7853981633974507215 ) ;
#116 = CARTESIAN_POINT ( 'NONE',  ( 2.094888803305880013E-13, 3.199999999999990852, 60.00000000000000000 ) ) ;
#117 = PERSON_AND_ORGANIZATION ( #325, #323 ) ;
#118 = DIRECTION ( 'NONE',  ( -3.491481338843133355E-15, 1.224646799147353207E-16, -1.000000000000000000 ) ) ;
#119 = CARTESIAN_POINT ( 'NONE',  ( 1.313017872575949616E-13, -4.000000000000004441, 59.20000000000000284 ) ) ;
#120 = ADVANCED_FACE ( 'NONE', ( #66 ), #65, .T. ) ;
#121 = CIRCLE ( 'NONE', #84, 3.199999999999998401 ) ;
#122 = LOCAL_TIME ( 9, 9, 6.000000000000000000, #333 ) ;
#123 = EDGE_CURVE ( 'NONE', #294, #313, #316, .T. ) ;
#124 = LINE ( 'NONE', #232, #44 ) ;
#125 = ORIENTED_EDGE ( 'NONE', *, *, #14, .T. ) ;
#126 = FACE_OUTER_BOUND ( 'NONE', #266, .T. ) ;
#127 = DIRECTION ( 'NONE',  ( 3.491481338843133355E-15, -1.224646799147353207E-16, 1.000000000000000000 ) ) ;
#128 = CARTESIAN_POINT ( 'NONE',  ( 4.189777606611760026E-14, -1.531760773402434319E-15, 12.00000000000000000 ) ) ;
#129 = EDGE_LOOP ( 'NONE', ( #135, #352, #46, #180 ) ) ;
#130 = COORDINATED_UNIVERSAL_TIME_OFFSET ( 1, 0, .AHEAD. ) ;
#131 = VERTEX_POINT ( 'NONE', #258 ) ;
#132 = CC_DESIGN_PERSON_AND_ORGANIZATION_ASSIGNMENT ( #299, #272, ( #71 ) ) ;
#133 = DIRECTION ( 'NONE',  ( 0.000000000000000000, -1.000000000000000000, 0.000000000000000000 ) ) ;
#134 = AXIS2_PLACEMENT_3D ( 'NONE', #319, #101, #290 ) ;
#135 = ORIENTED_EDGE ( 'NONE', *, *, #249, .T. ) ;
#136 = ORIENTED_EDGE ( 'NONE', *, *, #217, .F. ) ;
#137 = CIRCLE ( 'NONE', #60, 3.999999999999994671 ) ;
#138 = APPROVAL_PERSON_ORGANIZATION ( #248, #231, #225 ) ;
#139 = LINE ( 'NONE', #174, #32 ) ;
#140 = CALENDAR_DATE ( 2023, 31, 3 ) ;
#141 = CARTESIAN_POINT ( 'NONE',  ( -5.025764373196586666E-30, -2.999999999999996447, -1.439436126232260573E-15 ) ) ;
#142 = APPROVAL_DATE_TIME ( #55, #22 ) ;
#143 = DIRECTION ( 'NONE',  ( -4.275831445896958607E-31, -1.000000000000000000, -1.224646799147353207E-16 ) ) ;
#144 = DIRECTION ( 'NONE',  ( -3.491481338843133355E-15, 1.276467311168695266E-16, -1.000000000000000000 ) ) ;
#145 = EDGE_CURVE ( 'NONE', #49, #209, #289, .T. ) ;
#146 = DIRECTION ( 'NONE',  ( -3.491481338843133355E-15, 1.224646799147353207E-16, -1.000000000000000000 ) ) ;
#147 = ADVANCED_FACE ( 'NONE', ( #42 ), #152, .F. ) ;
#148 = DIRECTION ( 'NONE',  ( 3.491481338843133355E-15, -1.276467311168695266E-16, 1.000000000000000000 ) ) ;
#149 = VERTEX_POINT ( 'NONE', #177 ) ;
#150 = AXIS2_PLACEMENT_3D ( 'NONE', #196, #169, #61 ) ;
#151 = CARTESIAN_POINT ( 'NONE',  ( 2.131628207280301504E-14, 2.999999999999996447, -6.735557395311186511E-16 ) ) ;
#152 = PLANE ( 'NONE',  #161 ) ;
#153 = DIRECTION ( 'NONE',  ( 0.000000000000000000, 1.000000000000000000, 0.000000000000000000 ) ) ;
#154 = ORIENTED_EDGE ( 'NONE', *, *, #283, .F. ) ;
#155 = VECTOR ( 'NONE', #59, 1000.000000000000000 ) ;
#156 = ORIENTED_EDGE ( 'NONE', *, *, #14, .F. ) ;
#157 = ORIENTED_EDGE ( 'NONE', *, *, #94, .T. ) ;
#158 = EDGE_CURVE ( 'NONE', #294, #240, #124, .T. ) ;
#159 = DIRECTION ( 'NONE',  ( 3.491481338843133355E-15, -1.276467311168695266E-16, 1.000000000000000000 ) ) ;
#160 = DATE_AND_TIME ( #337, #165 ) ;
#161 = AXIS2_PLACEMENT_3D ( 'NONE', #9, #127, #235 ) ;
#162 = ORIENTED_EDGE ( 'NONE', *, *, #123, .F. ) ;
#163 = ORIENTED_EDGE ( 'NONE', *, *, #217, .T. ) ;
#164 = EDGE_LOOP ( 'NONE', ( #162, #184 ) ) ;
#165 = LOCAL_TIME ( 9, 9, 6.000000000000000000, #223 ) ;
#166 = PRODUCT_RELATED_PRODUCT_CATEGORY ( 'detail', '', ( #34 ) ) ;
#167 = FACE_OUTER_BOUND ( 'NONE', #360, .T. ) ;
#168 = PERSON_AND_ORGANIZATION_ROLE ( 'design_owner' ) ;
#169 = DIRECTION ( 'NONE',  ( 3.491481338843133355E-15, -1.224646799147353207E-16, 1.000000000000000000 ) ) ;
#170 = PERSON_AND_ORGANIZATION ( #325, #323 ) ;
#171 = DIRECTION ( 'NONE',  ( 0.000000000000000000, 1.000000000000000000, 0.000000000000000000 ) ) ;
#172 = EDGE_LOOP ( 'NONE', ( #358, #20, #238, #264 ) ) ;
#173 = CIRCLE ( 'NONE', #359, 2.999999999999995559 ) ;
#174 = CARTESIAN_POINT ( 'NONE',  ( 1.710332578358781341E-30, 3.999999999999994671, 4.898587196589406912E-16 ) ) ;
#175 = DIRECTION ( 'NONE',  ( 0.000000000000000000, -1.000000000000000000, 0.000000000000000000 ) ) ;
#176 = CC_DESIGN_SECURITY_CLASSIFICATION ( #71, ( #25 ) ) ;
#177 = CARTESIAN_POINT ( 'NONE',  ( 1.308119285379361725E-13, 3.999999999999993339, 15.73205080756886076 ) ) ;
#178 = DIRECTION ( 'NONE',  ( 3.491481338843133355E-15, -1.276467311168695266E-16, 1.000000000000000000 ) ) ;
#179 = CARTESIAN_POINT ( 'NONE',  ( -1.978412509992453461E-30, -2.999999999999996003, -5.666398637112520383E-16 ) ) ;
#180 = ORIENTED_EDGE ( 'NONE', *, *, #181, .F. ) ;
#181 = EDGE_CURVE ( 'NONE', #328, #350, #345, .T. ) ;
#182 = CC_DESIGN_APPROVAL ( #22, ( #25 ) ) ;
#183 = VERTEX_POINT ( 'NONE', #41 ) ;
#184 = ORIENTED_EDGE ( 'NONE', *, *, #239, .F. ) ;
#185 = VERTEX_POINT ( 'NONE', #151 ) ;
#186 = CIRCLE ( 'NONE', #229, 3.999999999999997335 ) ;
#187 = SECURITY_CLASSIFICATION_LEVEL ( 'unclassified' ) ;
#188 = CC_DESIGN_DATE_AND_TIME_ASSIGNMENT ( #160, #354, ( #71 ) ) ;
#189 = PERSON_AND_ORGANIZATION_ROLE ( 'design_supplier' ) ;
#190 = CARTESIAN_POINT ( 'NONE',  ( -3.688735834219957169E-30, 1.114095898418278362E-31, -1.056495932881652338E-15 ) ) ;
#191 =( GEOMETRIC_REPRESENTATION_CONTEXT ( 3 ) GLOBAL_UNCERTAINTY_ASSIGNED_CONTEXT ( ( #344 ) ) GLOBAL_UNIT_ASSIGNED_CONTEXT ( ( #31, #57, #111 ) ) REPRESENTATION_CONTEXT ( 'NONE', 'WORKASPACE' ) );
#192 = APPLICATION_PROTOCOL_DEFINITION ( 'international standard', 'config_control_design', 1994, #269 ) ;
#193 = DIRECTION ( 'NONE',  ( -3.491481338843133355E-15, 1.224646799147353207E-16, -1.000000000000000000 ) ) ;
#194 = COORDINATED_UNIVERSAL_TIME_OFFSET ( 1, 0, .AHEAD. ) ;
#195 = CARTESIAN_POINT ( 'NONE',  ( 2.066956952595134946E-13, 3.999999999999990674, 59.20000000000000284 ) ) ;
#196 = CARTESIAN_POINT ( 'NONE',  ( 4.189777606611760026E-14, 2.999519565323707552E-32, 12.00000000000000000 ) ) ;
#197 = VECTOR ( 'NONE', #67, 1000.000000000000000 ) ;
#198 = DIRECTION ( 'NONE',  ( 3.491481338843133355E-15, -1.276467311168695266E-16, 1.000000000000000000 ) ) ;
#199 = DIRECTION ( 'NONE',  ( -3.491481338843133355E-15, 1.224646799147353207E-16, -1.000000000000000000 ) ) ;
#200 = APPROVAL ( #12, 'UNSPECIFIED' ) ;
#201 = MANIFOLD_SOLID_BREP ( 'Corps-Déplacer/Copier1[1]', #213 ) ;
#202 = DIRECTION ( 'NONE',  ( -3.491481338843133355E-15, 1.224646799147353207E-16, -1.000000000000000000 ) ) ;
#203 = ADVANCED_BREP_SHAPE_REPRESENTATION ( '372748', ( #201, #327, #40 ), #191 ) ;
#204 = AXIS2_PLACEMENT_3D ( 'NONE', #30, #336, #143 ) ;
#205 = DIRECTION ( 'NONE',  ( 3.372511997194914833E-15, -0.2588190451025215166, 0.9659258262890679791 ) ) ;
#206 = CARTESIAN_POINT ( 'NONE',  ( 2.094888803305880013E-13, -7.347880794884118356E-15, 60.00000000000000000 ) ) ;
#207 = FACE_OUTER_BOUND ( 'NONE', #78, .T. ) ;
#208 = ADVANCED_FACE ( 'NONE', ( #126 ), #54, .T. ) ;
#209 = VERTEX_POINT ( 'NONE', #119 ) ;
#210 = CONICAL_SURFACE ( 'NONE', #301, 7.999999999999994671, 0.2617993877991501850 ) ;
#211 = CARTESIAN_POINT ( 'NONE',  ( 2.094888803305880013E-13, -7.347880794884118356E-15, 60.00000000000000000 ) ) ;
#212 = ORIENTED_EDGE ( 'NONE', *, *, #215, .T. ) ;
#213 = CLOSED_SHELL ( 'NONE', ( #284, #97, #110, #52, #79, #353, #24, #247 ) ) ;
#214 = ORIENTED_EDGE ( 'NONE', *, *, #355, .F. ) ;
#215 = EDGE_CURVE ( 'NONE', #149, #240, #137, .T. ) ;
#216 = APPROVAL_STATUS ( 'not_yet_approved' ) ;
#217 = EDGE_CURVE ( 'NONE', #313, #149, #87, .T. ) ;
#218 = EDGE_CURVE ( 'NONE', #350, #149, #139, .T. ) ;
#219 = DIRECTION ( 'NONE',  ( 0.000000000000000000, -1.000000000000000000, 0.000000000000000000 ) ) ;
#220 = PERSON_AND_ORGANIZATION_ROLE ( 'creator' ) ;
#221 = DIRECTION ( 'NONE',  ( -3.491481338843133355E-15, 1.224646799147353207E-16, -1.000000000000000000 ) ) ;
#222 = CONICAL_SURFACE ( 'NONE', #18, 3.199999999999998401, 0.7853981633974507215 ) ;
#223 = COORDINATED_UNIVERSAL_TIME_OFFSET ( 1, 0, .AHEAD. ) ;
#224 = CARTESIAN_POINT ( 'NONE',  ( 2.094888803305880013E-13, -7.347880794884118356E-15, 60.00000000000000000 ) ) ;
#225 = APPROVAL_ROLE ( '' ) ;
#226 = CARTESIAN_POINT ( 'NONE',  ( 1.313017872575950626E-13, -3.999999999999996447, 15.73205080756886076 ) ) ;
#227 = EDGE_LOOP ( 'NONE', ( #314, #125, #17, #72 ) ) ;
#228 = DIRECTION ( 'NONE',  ( 4.275831445896958607E-31, 1.000000000000000000, 1.224646799147353207E-16 ) ) ;
#229 = AXIS2_PLACEMENT_3D ( 'NONE', #56, #146, #3 ) ;
#230 = APPROVAL_PERSON_ORGANIZATION ( #170, #22, #305 ) ;
#231 = APPROVAL ( #216, 'UNSPECIFIED' ) ;
#232 = CARTESIAN_POINT ( 'NONE',  ( 1.070497048173232955E-13, -7.999999999999998224, 30.66025403784432513 ) ) ;
#233 = APPLICATION_CONTEXT ( 'configuration controlled 3d designs of mechanical parts and assemblies' ) ;
#234 = DIRECTION ( 'NONE',  ( -3.491481338843133355E-15, 1.224646799147353207E-16, -1.000000000000000000 ) ) ;
#235 = DIRECTION ( 'NONE',  ( -4.275831445896958607E-31, -1.000000000000000000, -1.224646799147353207E-16 ) ) ;
#236 = CIRCLE ( 'NONE', #357, 3.999999999999994671 ) ;
#237 = DIRECTION ( 'NONE',  ( 4.275831445896959482E-31, 1.000000000000000000, 1.224646799147353454E-16 ) ) ;
#238 = ORIENTED_EDGE ( 'NONE', *, *, #218, .T. ) ;
#239 = EDGE_CURVE ( 'NONE', #313, #294, #23, .T. ) ;
#240 = VERTEX_POINT ( 'NONE', #226 ) ;
#241 = ORIENTED_EDGE ( 'NONE', *, *, #95, .F. ) ;
#242 = AXIS2_PLACEMENT_3D ( 'NONE', #206, #43, #153 ) ;
#243 = DIRECTION ( 'NONE',  ( -3.491481338843133355E-15, 1.224646799147353207E-16, -1.000000000000000000 ) ) ;
#244 = CLOSED_SHELL ( 'NONE', ( #26, #208, #120, #147 ) ) ;
#245 = VECTOR ( 'NONE', #287, 1000.000000000000000 ) ;
#246 = AXIS2_PLACEMENT_3D ( 'NONE', #128, #148, #347 ) ;
#247 = ADVANCED_FACE ( 'NONE', ( #4 ), #114, .F. ) ;
#248 = PERSON_AND_ORGANIZATION ( #325, #323 ) ;
#249 = EDGE_CURVE ( 'NONE', #328, #49, #121, .T. ) ;
#250 = DIRECTION ( 'NONE',  ( 0.000000000000000000, 1.000000000000000000, 0.000000000000000000 ) ) ;
#251 = DATE_AND_TIME ( #140, #343 ) ;
#252 = CARTESIAN_POINT ( 'NONE',  ( 5.492816181635872417E-14, -2.008144859350672654E-15, 15.73205080756886076 ) ) ;
#253 = PERSON_AND_ORGANIZATION_ROLE ( 'creator' ) ;
#254 = DIRECTION ( 'NONE',  ( 3.491481338843133355E-15, -1.276467311168695266E-16, 1.000000000000000000 ) ) ;
#255 = DIRECTION ( 'NONE',  ( 3.491481338843133355E-15, -1.276467311168695266E-16, 1.000000000000000000 ) ) ;
#256 = CARTESIAN_POINT ( 'NONE',  ( 4.884159532093972892E-14, 2.999999999999993783, 12.00000000000000000 ) ) ;
#257 = CC_DESIGN_PERSON_AND_ORGANIZATION_ASSIGNMENT ( #331, #253, ( #25 ) ) ;
#258 = CARTESIAN_POINT ( 'NONE',  ( 4.189777606611760026E-14, -2.999999999999997335, 12.00000000000000000 ) ) ;
#259 = CIRCLE ( 'NONE', #329, 3.999999999999997335 ) ;
#260 = ORIENTED_EDGE ( 'NONE', *, *, #271, .T. ) ;
#261 = CARTESIAN_POINT ( 'NONE',  ( 2.098807673063151487E-13, -3.200000000000005951, 60.00000000000000000 ) ) ;
#262 = FACE_OUTER_BOUND ( 'NONE', #295, .T. ) ;
#263 = FACE_OUTER_BOUND ( 'NONE', #129, .T. ) ;
#264 = ORIENTED_EDGE ( 'NONE', *, *, #341, .F. ) ;
#265 = AXIS2_PLACEMENT_3D ( 'NONE', #363, #255, #219 ) ;
#266 = EDGE_LOOP ( 'NONE', ( #51, #103 ) ) ;
#267 = ORIENTED_EDGE ( 'NONE', *, *, #239, .T. ) ;
#268 = ORIENTED_EDGE ( 'NONE', *, *, #218, .F. ) ;
#269 = APPLICATION_CONTEXT ( 'configuration controlled 3d designs of mechanical parts and assemblies' ) ;
#270 = ORIENTED_EDGE ( 'NONE', *, *, #94, .F. ) ;
#271 = EDGE_CURVE ( 'NONE', #350, #209, #259, .T. ) ;
#272 = PERSON_AND_ORGANIZATION_ROLE ( 'classification_officer' ) ;
#273 = EDGE_CURVE ( 'NONE', #131, #183, #99, .T. ) ;
#274 = LOCAL_TIME ( 9, 9, 6.000000000000000000, #194 ) ;
#275 = PERSON_AND_ORGANIZATION ( #325, #323 ) ;
#276 = CARTESIAN_POINT ( 'NONE',  ( 3.673940397442061840E-16, 2.999999999999996003, 1.992405229899627545E-16 ) ) ;
#277 = APPLICATION_PROTOCOL_DEFINITION ( 'international standard', 'config_control_design', 1994, #233 ) ;
#278 = CARTESIAN_POINT ( 'NONE',  ( 1.070497048173232955E-13, -3.913681203143627969E-15, 30.66025403784432513 ) ) ;
#279 = DIRECTION ( 'NONE',  ( 3.491481338843133355E-15, -1.276467311168695266E-16, 1.000000000000000000 ) ) ;
#280 = EDGE_LOOP ( 'NONE', ( #241, #154 ) ) ;
#281 = AXIS2_PLACEMENT_3D ( 'NONE', #315, #202, #346 ) ;
#282 = CARTESIAN_POINT ( 'NONE',  ( 4.898587196589389163E-16, -3.999999999999994671, -4.898587196589422689E-16 ) ) ;
#283 = EDGE_CURVE ( 'NONE', #185, #286, #292, .T. ) ;
#284 = ADVANCED_FACE ( 'NONE', ( #81 ), #297, .T. ) ;
#285 = DIRECTION ( 'NONE',  ( 0.000000000000000000, -1.000000000000000000, 0.000000000000000000 ) ) ;
#286 = VERTEX_POINT ( 'NONE', #141 ) ;
#287 = DIRECTION ( 'NONE',  ( -2.468850131082259033E-15, 0.7071067811865493491, -0.7071067811865456854 ) ) ;
#288 = AXIS2_PLACEMENT_3D ( 'NONE', #13, #356, #68 ) ;
#289 = LINE ( 'NONE', #261, #53 ) ;
#290 = DIRECTION ( 'NONE',  ( -4.456761796588770537E-31, -1.000000000000000000, -1.276467311168695266E-16 ) ) ;
#291 = FACE_OUTER_BOUND ( 'NONE', #172, .T. ) ;
#292 = CIRCLE ( 'NONE', #6, 2.999999999999996447 ) ;
#293 = LOCAL_TIME ( 9, 9, 6.000000000000000000, #130 ) ;
#294 = VERTEX_POINT ( 'NONE', #302 ) ;
#295 = EDGE_LOOP ( 'NONE', ( #260, #35, #322, #268 ) ) ;
#296 = ORIENTED_EDGE ( 'NONE', *, *, #158, .T. ) ;
#297 = CONICAL_SURFACE ( 'NONE', #348, 7.999999999999994671, 0.2617993877991501850 ) ;
#298 = EDGE_LOOP ( 'NONE', ( #102, #163, #212, #106 ) ) ;
#299 = PERSON_AND_ORGANIZATION ( #325, #323 ) ;
#300 = DATE_AND_TIME ( #86, #122 ) ;
#301 = AXIS2_PLACEMENT_3D ( 'NONE', #19, #159, #133 ) ;
#302 = CARTESIAN_POINT ( 'NONE',  ( 4.189777606611760026E-14, -2.999999999999997335, 12.00000000000000000 ) ) ;
#303 = CALENDAR_DATE ( 2023, 31, 3 ) ;
#304 = CARTESIAN_POINT ( 'NONE',  ( 2.066956952595134946E-13, -7.249909050952329922E-15, 59.20000000000000284 ) ) ;
#305 = APPROVAL_ROLE ( '' ) ;
#306 = PLANE ( 'NONE',  #109 ) ;
#307 = ORIENTED_EDGE ( 'NONE', *, *, #361, .F. ) ;
#308 = DIRECTION ( 'NONE',  ( -3.491481338843133355E-15, 1.224646799147353207E-16, -1.000000000000000000 ) ) ;
#309 = EDGE_CURVE ( 'NONE', #209, #240, #340, .T. ) ;
#310 = DIRECTION ( 'NONE',  ( 0.000000000000000000, -1.000000000000000000, 0.000000000000000000 ) ) ;
#311 = EDGE_CURVE ( 'NONE', #209, #350, #186, .T. ) ;
#312 = CYLINDRICAL_SURFACE ( 'NONE', #281, 3.999999999999994671 ) ;
#313 = VERTEX_POINT ( 'NONE', #256 ) ;
#314 = ORIENTED_EDGE ( 'NONE', *, *, #145, .F. ) ;
#315 = CARTESIAN_POINT ( 'NONE',  ( 0.000000000000000000, 0.000000000000000000, 0.000000000000000000 ) ) ;
#316 = CIRCLE ( 'NONE', #246, 2.999999999999995559 ) ;
#317 = FACE_OUTER_BOUND ( 'NONE', #227, .T. ) ;
#318 = SHAPE_DEFINITION_REPRESENTATION ( #58, #203 ) ;
#319 = CARTESIAN_POINT ( 'NONE',  ( -3.688735834219957169E-30, 1.114095898418278362E-31, -1.056495932881652338E-15 ) ) ;
#320 = CYLINDRICAL_SURFACE ( 'NONE', #288, 2.999999999999996003 ) ;
#321 = PRODUCT_DEFINITION ( 'UNKNOWN', '', #25, #27 ) ;
#322 = ORIENTED_EDGE ( 'NONE', *, *, #215, .F. ) ;
#323 = ORGANIZATION ( 'UNSPECIFIED', 'UNSPECIFIED', '' ) ;
#324 = CC_DESIGN_APPROVAL ( #231, ( #321 ) ) ;
#325 = PERSON ( 'UNSPECIFIED', 'UNSPECIFIED', 'UNSPECIFIED', ('UNSPECIFIED'), ('UNSPECIFIED'), ('UNSPECIFIED') ) ;
#326 = CARTESIAN_POINT ( 'NONE',  ( 2.085331606427438046E-13, -3.200000000000005951, 60.00000000000000000 ) ) ;
#327 = MANIFOLD_SOLID_BREP ( 'Corps-Déplacer/Copier1[2]', #244 ) ;
#328 = VERTEX_POINT ( 'NONE', #116 ) ;
#329 = AXIS2_PLACEMENT_3D ( 'NONE', #304, #36, #250 ) ;
#330 = EDGE_LOOP ( 'NONE', ( #136, #267, #296, #11 ) ) ;
#331 = PERSON_AND_ORGANIZATION ( #325, #323 ) ;
#332 = DIRECTION ( 'NONE',  ( 0.000000000000000000, -1.000000000000000000, 0.000000000000000000 ) ) ;
#333 = COORDINATED_UNIVERSAL_TIME_OFFSET ( 1, 0, .AHEAD. ) ;
#334 = CC_DESIGN_APPROVAL ( #200, ( #71 ) ) ;
#335 = AXIS2_PLACEMENT_3D ( 'NONE', #98, #234, #237 ) ;
#336 = DIRECTION ( 'NONE',  ( 3.491481338843133355E-15, -1.224646799147353207E-16, 1.000000000000000000 ) ) ;
#337 = CALENDAR_DATE ( 2023, 31, 3 ) ;
#338 = CARTESIAN_POINT ( 'NONE',  ( 5.492816181635872417E-14, -2.008144859350672654E-15, 15.73205080756886076 ) ) ;
#339 = COORDINATED_UNIVERSAL_TIME_OFFSET ( 1, 0, .AHEAD. ) ;
#340 = LINE ( 'NONE', #282, #105 ) ;
#341 = EDGE_CURVE ( 'NONE', #240, #149, #236, .T. ) ;
#342 = CARTESIAN_POINT ( 'NONE',  ( 1.080294222566411767E-13, 7.999999999999991118, 30.66025403784432513 ) ) ;
#343 = LOCAL_TIME ( 9, 9, 6.000000000000000000, #339 ) ;
#344 = UNCERTAINTY_MEASURE_WITH_UNIT (LENGTH_MEASURE( 1.000000000000000082E-05 ), #31, 'distance_accuracy_value', 'NONE');
#345 = LINE ( 'NONE', #96, #245 ) ;
#346 = DIRECTION ( 'NONE',  ( 4.275831445896959482E-31, 1.000000000000000000, 1.224646799147353454E-16 ) ) ;
#347 = DIRECTION ( 'NONE',  ( 0.000000000000000000, -1.000000000000000000, 0.000000000000000000 ) ) ;
#348 = AXIS2_PLACEMENT_3D ( 'NONE', #278, #254, #175 ) ;
#349 = LINE ( 'NONE', #179, #197 ) ;
#350 = VERTEX_POINT ( 'NONE', #195 ) ;
#351 = CC_DESIGN_PERSON_AND_ORGANIZATION_ASSIGNMENT ( #117, #168, ( #34 ) ) ;
#352 = ORIENTED_EDGE ( 'NONE', *, *, #145, .T. ) ;
#353 = ADVANCED_FACE ( 'NONE', ( #167 ), #306, .F. ) ;
#354 = DATE_TIME_ROLE ( 'classification_date' ) ;
#355 = EDGE_CURVE ( 'NONE', #183, #131, #173, .T. ) ;
#356 = DIRECTION ( 'NONE',  ( 3.491481338843133355E-15, -1.276467311168695266E-16, 1.000000000000000000 ) ) ;
#357 = AXIS2_PLACEMENT_3D ( 'NONE', #338, #5, #285 ) ;
#358 = ORIENTED_EDGE ( 'NONE', *, *, #309, .F. ) ;
#359 = AXIS2_PLACEMENT_3D ( 'NONE', #362, #198, #310 ) ;
#360 = EDGE_LOOP ( 'NONE', ( #62, #156 ) ) ;
#361 = EDGE_CURVE ( 'NONE', #185, #183, #63, .T. ) ;
#362 = CARTESIAN_POINT ( 'NONE',  ( 4.189777606611760026E-14, -1.531760773402434319E-15, 12.00000000000000000 ) ) ;
#363 = CARTESIAN_POINT ( 'NONE',  ( 4.189777606611760026E-14, -1.531760773402434319E-15, 12.00000000000000000 ) ) ;
ENDSEC;
END-ISO-10303-21;
