ISO-10303-21;
HEADER;
FILE_DESCRIPTION (( 'STEP AP203' ),
    '1' );
FILE_NAME ('372747.step',
    '2023-03-31T07:09:05',
    ( '' ),
    ( '' ),
    'SwSTEP 2.0',
    'SolidWorks 2022',
    '' );
FILE_SCHEMA (( 'CONFIG_CONTROL_DESIGN' ));
ENDSEC;

DATA;
#1 = CIRCLE ( 'NONE', #125, 2.999999999999995559 ) ;
#2 = PERSON_AND_ORGANIZATION ( #276, #79 ) ;
#3 = EDGE_LOOP ( 'NONE', ( #197, #133 ) ) ;
#4 = CALENDAR_DATE ( 2023, 31, 3 ) ;
#5 = DIRECTION ( 'NONE',  ( 1.000000000000000000, 0.000000000000000000, 0.000000000000000000 ) ) ;
#6 = CIRCLE ( 'NONE', #260, 2.999999999999990674 ) ;
#7 = ORIENTED_EDGE ( 'NONE', *, *, #150, .F. ) ;
#8 = PLANE ( 'NONE',  #291 ) ;
#9 = ORIENTED_EDGE ( 'NONE', *, *, #236, .F. ) ;
#10 = CIRCLE ( 'NONE', #194, 3.000000000000000888 ) ;
#11 = EDGE_CURVE ( 'NONE', #265, #225, #240, .T. ) ;
#12 = APPROVAL ( #235, 'UNSPECIFIED' ) ;
#13 = CARTESIAN_POINT ( 'NONE',  ( 1.326762908760390423E-13, -4.653657836759941941E-15, 38.00000000000000000 ) ) ;
#14 = AXIS2_PLACEMENT_3D ( 'NONE', #253, #248, #280 ) ;
#15 = CARTESIAN_POINT ( 'NONE',  ( 1.326762908760390423E-13, 2.999999999999991118, 38.00000000000000000 ) ) ;
#16 = FACE_OUTER_BOUND ( 'NONE', #163, .T. ) ;
#17 = LINE ( 'NONE', #180, #284 ) ;
#18 = DIRECTION ( 'NONE',  ( 0.000000000000000000, 1.000000000000000000, 0.000000000000000000 ) ) ;
#19 = CC_DESIGN_APPROVAL ( #173, ( #91 ) ) ;
#20 = ADVANCED_FACE ( 'NONE', ( #158 ), #80, .T. ) ;
#21 = PRODUCT_DEFINITION ( 'UNKNOWN', '', #91, #166 ) ;
#22 = CARTESIAN_POINT ( 'NONE',  ( -1.710332656378656636E-30, 5.999039404304306745E-32, -4.898587420047210426E-16 ) ) ;
#23 = ORIENTED_EDGE ( 'NONE', *, *, #300, .F. ) ;
#24 = CIRCLE ( 'NONE', #53, 2.999999999999995559 ) ;
#25 = DATE_AND_TIME ( #4, #151 ) ;
#26 = DIRECTION ( 'NONE',  ( -3.491481338843133355E-15, 1.224646799147353207E-16, -1.000000000000000000 ) ) ;
#27 = COORDINATED_UNIVERSAL_TIME_OFFSET ( 1, 0, .AHEAD. ) ;
#28 = ORIENTED_EDGE ( 'NONE', *, *, #224, .T. ) ;
#29 = ORIENTED_EDGE ( 'NONE', *, *, #208, .T. ) ;
#30 = DIRECTION ( 'NONE',  ( -3.491481338843133355E-15, 1.224646799147353207E-16, -1.000000000000000000 ) ) ;
#31 = ORIENTED_EDGE ( 'NONE', *, *, #238, .F. ) ;
#32 = APPLICATION_PROTOCOL_DEFINITION ( 'international standard', 'config_control_design', 1994, #100 ) ;
#33 = FACE_OUTER_BOUND ( 'NONE', #245, .T. ) ;
#34 = EDGE_LOOP ( 'NONE', ( #50, #200, #113, #242 ) ) ;
#35 = VECTOR ( 'NONE', #26, 1000.000000000000000 ) ;
#36 = AXIS2_PLACEMENT_3D ( 'NONE', #237, #192, #5 ) ;
#37 = ORIENTED_EDGE ( 'NONE', *, *, #11, .F. ) ;
#38 = CARTESIAN_POINT ( 'NONE',  ( 0.000000000000000000, 0.000000000000000000, 0.000000000000000000 ) ) ;
#39 = DIRECTION ( 'NONE',  ( -3.491481338843133355E-15, 1.224646799147353207E-16, -1.000000000000000000 ) ) ;
#40 = CARTESIAN_POINT ( 'NONE',  ( 2.793185071074506684E-13, 2.399999999999991473, 80.00000000000000000 ) ) ;
#41 = DIRECTION ( 'NONE',  ( 4.275831445896958607E-31, 1.000000000000000000, 1.224646799147352961E-16 ) ) ;
#42 = DIRECTION ( 'NONE',  ( -3.491481338843133355E-15, 1.224646799147353207E-16, -1.000000000000000000 ) ) ;
#43 = EDGE_CURVE ( 'NONE', #101, #265, #17, .T. ) ;
#44 = APPROVAL ( #115, 'UNSPECIFIED' ) ;
#45 = AXIS2_PLACEMENT_3D ( 'NONE', #13, #132, #223 ) ;
#46 = PERSON_AND_ORGANIZATION ( #276, #79 ) ;
#47 = PERSON_AND_ORGANIZATION ( #276, #79 ) ;
#48 = DIRECTION ( 'NONE',  ( -4.275831445896958607E-31, -1.000000000000000000, -1.224646799147353207E-16 ) ) ;
#49 = ADVANCED_FACE ( 'NONE', ( #254 ), #281, .F. ) ;
#50 = ORIENTED_EDGE ( 'NONE', *, *, #238, .T. ) ;
#51 =( NAMED_UNIT ( * ) SI_UNIT ( $, .STERADIAN. ) SOLID_ANGLE_UNIT ( ) );
#52 = ORIENTED_EDGE ( 'NONE', *, *, #272, .T. ) ;
#53 = AXIS2_PLACEMENT_3D ( 'NONE', #205, #202, #154 ) ;
#54 = ORIENTED_EDGE ( 'NONE', *, *, #272, .F. ) ;
#55 = EDGE_LOOP ( 'NONE', ( #54, #188 ) ) ;
#56 = DIRECTION ( 'NONE',  ( -3.491481338843133355E-15, 1.224646799147353207E-16, -1.000000000000000000 ) ) ;
#57 = CYLINDRICAL_SURFACE ( 'NONE', #86, 2.999999999999998224 ) ;
#58 = DIRECTION ( 'NONE',  ( -4.275831445896958607E-31, -1.000000000000000000, -1.224646799147353207E-16 ) ) ;
#59 = FACE_OUTER_BOUND ( 'NONE', #283, .T. ) ;
#60 = CIRCLE ( 'NONE', #45, 2.999999999999995559 ) ;
#61 = DIRECTION ( 'NONE',  ( -2.468850131082272838E-15, 0.7071067811865453523, -0.7071067811865496822 ) ) ;
#62 = CARTESIAN_POINT ( 'NONE',  ( 2.793185071074506684E-13, -9.797174393178826052E-15, 80.00000000000000000 ) ) ;
#63 = CC_DESIGN_DATE_AND_TIME_ASSIGNMENT ( #193, #186, ( #98 ) ) ;
#64 = CLOSED_SHELL ( 'NONE', ( #73, #184, #301, #126, #215, #312 ) ) ;
#65 = APPROVAL_DATE_TIME ( #141, #173 ) ;
#66 = DIRECTION ( 'NONE',  ( 4.275831445896958607E-31, 1.000000000000000000, 1.224646799147353207E-16 ) ) ;
#67 = DATE_AND_TIME ( #212, #122 ) ;
#68 = MANIFOLD_SOLID_BREP ( 'Corps-Déplacer/Copier1[1]', #64 ) ;
#69 = VERTEX_POINT ( 'NONE', #267 ) ;
#70 = LOCAL_TIME ( 9, 9, 5.000000000000000000, #27 ) ;
#71 = PLANE ( 'NONE',  #181 ) ;
#72 = SHAPE_DEFINITION_REPRESENTATION ( #112, #203 ) ;
#73 = ADVANCED_FACE ( 'NONE', ( #99 ), #78, .T. ) ;
#74 = ORIENTED_EDGE ( 'NONE', *, *, #183, .T. ) ;
#75 = CC_DESIGN_PERSON_AND_ORGANIZATION_ASSIGNMENT ( #298, #199, ( #85 ) ) ;
#76 = DIRECTION ( 'NONE',  ( -3.491481338843133355E-15, 1.224646799147353207E-16, -1.000000000000000000 ) ) ;
#77 = APPLICATION_PROTOCOL_DEFINITION ( 'international standard', 'config_control_design', 1994, #124 ) ;
#78 = CONICAL_SURFACE ( 'NONE', #249, 2.400000000000001688, 0.7853981633974450594 ) ;
#79 = ORGANIZATION ( 'UNSPECIFIED', 'UNSPECIFIED', '' ) ;
#80 = CYLINDRICAL_SURFACE ( 'NONE', #187, 2.999999999999993339 ) ;
#81 = CARTESIAN_POINT ( 'NONE',  ( 1.326762908760390423E-13, -4.653657836759941941E-15, 38.00000000000000000 ) ) ;
#82 = FACE_OUTER_BOUND ( 'NONE', #243, .T. ) ;
#83 = CYLINDRICAL_SURFACE ( 'NONE', #111, 2.999999999999998224 ) ;
#84 = CARTESIAN_POINT ( 'NONE',  ( 2.796124223392460732E-13, -2.400000000000011458, 80.00000000000000000 ) ) ;
#85 = PRODUCT ( '372747', '372747', '', ( #198 ) ) ;
#86 = AXIS2_PLACEMENT_3D ( 'NONE', #38, #128, #206 ) ;
#87 = VERTEX_POINT ( 'NONE', #40 ) ;
#88 = CARTESIAN_POINT ( 'NONE',  ( 2.772236183041447758E-13, 2.999999999999991562, 79.39999999999999147 ) ) ;
#89 = ORIENTED_EDGE ( 'NONE', *, *, #259, .F. ) ;
#90 = PERSON_AND_ORGANIZATION_ROLE ( 'classification_officer' ) ;
#91 = PRODUCT_DEFINITION_FORMATION_WITH_SPECIFIED_SOURCE ( 'ANY', '', #85, .NOT_KNOWN. ) ;
#92 = ORIENTED_EDGE ( 'NONE', *, *, #150, .T. ) ;
#93 = PERSON_AND_ORGANIZATION_ROLE ( 'creator' ) ;
#94 = COORDINATED_UNIVERSAL_TIME_OFFSET ( 1, 0, .AHEAD. ) ;
#95 = DIRECTION ( 'NONE',  ( 4.275831445896958607E-31, 1.000000000000000000, 1.224646799147353207E-16 ) ) ;
#96 = SECURITY_CLASSIFICATION_LEVEL ( 'unclassified' ) ;
#97 = EDGE_CURVE ( 'NONE', #101, #169, #211, .T. ) ;
#98 = SECURITY_CLASSIFICATION ( '', '', #96 ) ;
#99 = FACE_OUTER_BOUND ( 'NONE', #34, .T. ) ;
#100 = APPLICATION_CONTEXT ( 'configuration controlled 3d designs of mechanical parts and assemblies' ) ;
#101 = VERTEX_POINT ( 'NONE', #278 ) ;
#102 = DIRECTION ( 'NONE',  ( 4.275831445896958607E-31, 1.000000000000000000, 1.224646799147353207E-16 ) ) ;
#103 = VERTEX_POINT ( 'NONE', #226 ) ;
#104 = CARTESIAN_POINT ( 'NONE',  ( 1.282749433769084604E-30, 2.999999999999993339, 3.673940397442050993E-16 ) ) ;
#105 = VERTEX_POINT ( 'NONE', #310 ) ;
#106 = ADVANCED_FACE ( 'NONE', ( #177 ), #282, .T. ) ;
#107 = DIRECTION ( 'NONE',  ( -3.491481338843133355E-15, 1.224646799147353207E-16, -1.000000000000000000 ) ) ;
#108 = LINE ( 'NONE', #247, #139 ) ;
#109 = CARTESIAN_POINT ( 'NONE',  ( 2.772236183041447758E-13, -9.723695585229984332E-15, 79.39999999999999147 ) ) ;
#110 = CYLINDRICAL_SURFACE ( 'NONE', #14, 2.999999999999993339 ) ;
#111 = AXIS2_PLACEMENT_3D ( 'NONE', #155, #302, #251 ) ;
#112 = PRODUCT_DEFINITION_SHAPE ( 'NONE', 'NONE',  #21 ) ;
#113 = ORIENTED_EDGE ( 'NONE', *, *, #159, .F. ) ;
#114 = APPROVAL_PERSON_ORGANIZATION ( #2, #173, #231 ) ;
#115 = APPROVAL_STATUS ( 'not_yet_approved' ) ;
#116 = ADVANCED_FACE ( 'NONE', ( #59 ), #110, .T. ) ;
#117 = DIRECTION ( 'NONE',  ( -3.491481338843133355E-15, 1.224646799147353207E-16, -1.000000000000000000 ) ) ;
#118 = CALENDAR_DATE ( 2023, 31, 3 ) ;
#119 = CC_DESIGN_PERSON_AND_ORGANIZATION_ASSIGNMENT ( #160, #287, ( #91 ) ) ;
#120 = DIRECTION ( 'NONE',  ( 3.491481338843133355E-15, -1.224646799147353207E-16, 1.000000000000000000 ) ) ;
#121 = ORIENTED_EDGE ( 'NONE', *, *, #300, .T. ) ;
#122 = LOCAL_TIME ( 9, 9, 5.000000000000000000, #290 ) ;
#123 = DIRECTION ( 'NONE',  ( -3.491481338843133355E-15, 1.224646799147353207E-16, -1.000000000000000000 ) ) ;
#124 = APPLICATION_CONTEXT ( 'configuration controlled 3d designs of mechanical parts and assemblies' ) ;
#125 = AXIS2_PLACEMENT_3D ( 'NONE', #144, #168, #244 ) ;
#126 = ADVANCED_FACE ( 'NONE', ( #16 ), #83, .T. ) ;
#127 = CC_DESIGN_PERSON_AND_ORGANIZATION_ASSIGNMENT ( #209, #263, ( #91 ) ) ;
#128 = DIRECTION ( 'NONE',  ( -3.491481338843133355E-15, 1.224646799147353207E-16, -1.000000000000000000 ) ) ;
#129 = AXIS2_PLACEMENT_3D ( 'NONE', #178, #252, #135 ) ;
#130 = DIRECTION ( 'NONE',  ( -3.491481338843133355E-15, 1.224646799147353207E-16, -1.000000000000000000 ) ) ;
#131 = CIRCLE ( 'NONE', #309, 2.400000000000001688 ) ;
#132 = DIRECTION ( 'NONE',  ( -3.491481338843133355E-15, 1.224646799147353207E-16, -1.000000000000000000 ) ) ;
#133 = ORIENTED_EDGE ( 'NONE', *, *, #11, .T. ) ;
#134 = DIRECTION ( 'NONE',  ( 0.000000000000000000, 1.000000000000000000, 0.000000000000000000 ) ) ;
#135 = DIRECTION ( 'NONE',  ( -4.275831445896958607E-31, -1.000000000000000000, -1.224646799147353207E-16 ) ) ;
#136 = AXIS2_PLACEMENT_3D ( 'NONE', #148, #123, #289 ) ;
#137 = DATE_TIME_ROLE ( 'creation_date' ) ;
#138 = CALENDAR_DATE ( 2023, 31, 3 ) ;
#139 = VECTOR ( 'NONE', #39, 1000.000000000000000 ) ;
#140 = CARTESIAN_POINT ( 'NONE',  ( 2.793185071074506684E-13, -9.797174393178826052E-15, 80.00000000000000000 ) ) ;
#141 = DATE_AND_TIME ( #313, #201 ) ;
#142 = FACE_OUTER_BOUND ( 'NONE', #288, .T. ) ;
#143 = ORIENTED_EDGE ( 'NONE', *, *, #149, .T. ) ;
#144 = CARTESIAN_POINT ( 'NONE',  ( 1.326762908760390423E-13, -4.653657836759941941E-15, 38.00000000000000000 ) ) ;
#145 = ORIENTED_EDGE ( 'NONE', *, *, #183, .F. ) ;
#146 = CONICAL_SURFACE ( 'NONE', #221, 2.400000000000001688, 0.7853981633974450594 ) ;
#147 = ORIENTED_EDGE ( 'NONE', *, *, #236, .T. ) ;
#148 = CARTESIAN_POINT ( 'NONE',  ( 2.793185071074506684E-13, -9.797174393178826052E-15, 80.00000000000000000 ) ) ;
#149 = EDGE_CURVE ( 'NONE', #103, #230, #24, .T. ) ;
#150 = EDGE_CURVE ( 'NONE', #230, #103, #60, .T. ) ;
#151 = LOCAL_TIME ( 9, 9, 5.000000000000000000, #189 ) ;
#152 = CARTESIAN_POINT ( 'NONE',  ( 2.772236183041447758E-13, -9.723695585229984332E-15, 79.39999999999999147 ) ) ;
#153 = PRODUCT_RELATED_PRODUCT_CATEGORY ( 'detail', '', ( #85 ) ) ;
#154 = DIRECTION ( 'NONE',  ( 0.000000000000000000, 1.000000000000000000, 0.000000000000000000 ) ) ;
#155 = CARTESIAN_POINT ( 'NONE',  ( 0.000000000000000000, 0.000000000000000000, 0.000000000000000000 ) ) ;
#156 = APPROVAL_PERSON_ORGANIZATION ( #47, #12, #232 ) ;
#157 = CARTESIAN_POINT ( 'NONE',  ( -4.275832226095729073E-31, 2.999999999999990674, -1.224647022605161898E-16 ) ) ;
#158 = FACE_OUTER_BOUND ( 'NONE', #261, .T. ) ;
#159 = EDGE_CURVE ( 'NONE', #213, #105, #279, .T. ) ;
#160 = PERSON_AND_ORGANIZATION ( #276, #79 ) ;
#161 = DATE_AND_TIME ( #118, #70 ) ;
#162 = APPROVAL_DATE_TIME ( #67, #44 ) ;
#163 = EDGE_LOOP ( 'NONE', ( #145, #29, #297, #270 ) ) ;
#164 = CARTESIAN_POINT ( 'NONE',  ( 6.670553947776370133E-14, -2.999999999999990674, -8.572527817491587080E-16 ) ) ;
#165 = ORIENTED_EDGE ( 'NONE', *, *, #208, .F. ) ;
#166 = DESIGN_CONTEXT ( 'detailed design', #124, 'design' ) ;
#167 =( NAMED_UNIT ( * ) PLANE_ANGLE_UNIT ( ) SI_UNIT ( $, .RADIAN. ) );
#168 = DIRECTION ( 'NONE',  ( -3.491481338843133355E-15, 1.224646799147353207E-16, -1.000000000000000000 ) ) ;
#169 = VERTEX_POINT ( 'NONE', #305 ) ;
#170 = DIRECTION ( 'NONE',  ( -3.491481338843133355E-15, 1.224646799147353207E-16, -1.000000000000000000 ) ) ;
#171 = MANIFOLD_SOLID_BREP ( 'Corps-Déplacer/Copier1[2]', #258 ) ;
#172 = EDGE_CURVE ( 'NONE', #69, #105, #182, .T. ) ;
#173 = APPROVAL ( #285, 'UNSPECIFIED' ) ;
#174 = APPROVAL_PERSON_ORGANIZATION ( #190, #44, #256 ) ;
#175 = DIRECTION ( 'NONE',  ( -2.382254525458724175E-15, -0.7071067811865451302, -0.7071067811865499042 ) ) ;
#176 = DIRECTION ( 'NONE',  ( 0.000000000000000000, 1.000000000000000000, 0.000000000000000000 ) ) ;
#177 = FACE_OUTER_BOUND ( 'NONE', #55, .T. ) ;
#178 = CARTESIAN_POINT ( 'NONE',  ( -8.551663281893283178E-31, 2.999519702152153373E-32, -2.449293710023605213E-16 ) ) ;
#179 = CARTESIAN_POINT ( 'NONE',  ( 2.793185071074506684E-13, 2.399999999999991473, 80.00000000000000000 ) ) ;
#180 = CARTESIAN_POINT ( 'NONE',  ( 3.673940397442038667E-16, -2.999999999999993339, -3.673940397442063812E-16 ) ) ;
#181 = AXIS2_PLACEMENT_3D ( 'NONE', #234, #120, #48 ) ;
#182 = LINE ( 'NONE', #84, #219 ) ;
#183 = EDGE_CURVE ( 'NONE', #105, #103, #108, .T. ) ;
#184 = ADVANCED_FACE ( 'NONE', ( #275 ), #57, .T. ) ;
#185 = CC_DESIGN_DATE_AND_TIME_ASSIGNMENT ( #25, #137, ( #21 ) ) ;
#186 = DATE_TIME_ROLE ( 'classification_date' ) ;
#187 = AXIS2_PLACEMENT_3D ( 'NONE', #274, #56, #41 ) ;
#188 = ORIENTED_EDGE ( 'NONE', *, *, #97, .F. ) ;
#189 = COORDINATED_UNIVERSAL_TIME_OFFSET ( 1, 0, .AHEAD. ) ;
#190 = PERSON_AND_ORGANIZATION ( #276, #79 ) ;
#191 = ORIENTED_EDGE ( 'NONE', *, *, #43, .F. ) ;
#192 = DIRECTION ( 'NONE',  ( 0.000000000000000000, 0.000000000000000000, 1.000000000000000000 ) ) ;
#193 = DATE_AND_TIME ( #138, #273 ) ;
#194 = AXIS2_PLACEMENT_3D ( 'NONE', #152, #107, #176 ) ;
#195 = ORIENTED_EDGE ( 'NONE', *, *, #262, .F. ) ;
#196 = CARTESIAN_POINT ( 'NONE',  ( -1.710332656378656636E-30, 5.999039404304306745E-32, -4.898587420047210426E-16 ) ) ;
#197 = ORIENTED_EDGE ( 'NONE', *, *, #259, .T. ) ;
#198 = MECHANICAL_CONTEXT ( 'NONE', #100, 'mechanical' ) ;
#199 = PERSON_AND_ORGANIZATION_ROLE ( 'design_owner' ) ;
#200 = ORIENTED_EDGE ( 'NONE', *, *, #172, .T. ) ;
#201 = LOCAL_TIME ( 9, 9, 5.000000000000000000, #94 ) ;
#202 = DIRECTION ( 'NONE',  ( -3.491481338843133355E-15, 1.224646799147353207E-16, -1.000000000000000000 ) ) ;
#203 = ADVANCED_BREP_SHAPE_REPRESENTATION ( '372747', ( #68, #171, #36 ), #228 ) ;
#204 = DIRECTION ( 'NONE',  ( 0.000000000000000000, 1.000000000000000000, 0.000000000000000000 ) ) ;
#205 = CARTESIAN_POINT ( 'NONE',  ( 1.326762908760390423E-13, -4.653657836759941941E-15, 38.00000000000000000 ) ) ;
#206 = DIRECTION ( 'NONE',  ( 4.275831445896958607E-31, 1.000000000000000000, 1.224646799147353454E-16 ) ) ;
#207 = VECTOR ( 'NONE', #61, 1000.000000000000000 ) ;
#208 = EDGE_CURVE ( 'NONE', #105, #213, #10, .T. ) ;
#209 = PERSON_AND_ORGANIZATION ( #276, #79 ) ;
#210 = PERSON_AND_ORGANIZATION ( #276, #79 ) ;
#211 = CIRCLE ( 'NONE', #299, 2.999999999999995559 ) ;
#212 = CALENDAR_DATE ( 2023, 31, 3 ) ;
#213 = VERTEX_POINT ( 'NONE', #88 ) ;
#214 = APPROVAL_DATE_TIME ( #161, #12 ) ;
#215 = ADVANCED_FACE ( 'NONE', ( #82 ), #146, .T. ) ;
#216 = AXIS2_PLACEMENT_3D ( 'NONE', #109, #307, #18 ) ;
#217 = EDGE_LOOP ( 'NONE', ( #292, #74, #7, #195 ) ) ;
#218 = CARTESIAN_POINT ( 'NONE',  ( 1.282749433769086881E-30, 2.999999999999998224, 3.673940397442057896E-16 ) ) ;
#219 = VECTOR ( 'NONE', #175, 1000.000000000000114 ) ;
#220 = DIRECTION ( 'NONE',  ( 3.491481338843133355E-15, -1.224646799147353207E-16, 1.000000000000000000 ) ) ;
#221 = AXIS2_PLACEMENT_3D ( 'NONE', #277, #130, #204 ) ;
#222 = LINE ( 'NONE', #179, #207 ) ;
#223 = DIRECTION ( 'NONE',  ( 0.000000000000000000, 1.000000000000000000, 0.000000000000000000 ) ) ;
#224 = EDGE_CURVE ( 'NONE', #87, #213, #222, .T. ) ;
#225 = VERTEX_POINT ( 'NONE', #157 ) ;
#226 = CARTESIAN_POINT ( 'NONE',  ( 2.053173486298360640E-13, -3.000000000000000444, 38.00000000000000000 ) ) ;
#227 = CC_DESIGN_PERSON_AND_ORGANIZATION_ASSIGNMENT ( #210, #93, ( #21 ) ) ;
#228 =( GEOMETRIC_REPRESENTATION_CONTEXT ( 3 ) GLOBAL_UNCERTAINTY_ASSIGNED_CONTEXT ( ( #293 ) ) GLOBAL_UNIT_ASSIGNED_CONTEXT ( ( #271, #167, #51 ) ) REPRESENTATION_CONTEXT ( 'NONE', 'WORKASPACE' ) );
#229 = ORIENTED_EDGE ( 'NONE', *, *, #172, .F. ) ;
#230 = VERTEX_POINT ( 'NONE', #15 ) ;
#231 = APPROVAL_ROLE ( '' ) ;
#232 = APPROVAL_ROLE ( '' ) ;
#233 = DIRECTION ( 'NONE',  ( 0.000000000000000000, 1.000000000000000000, 0.000000000000000000 ) ) ;
#234 = CARTESIAN_POINT ( 'NONE',  ( 1.326762908760390423E-13, 2.249639673992776285E-32, 38.00000000000000000 ) ) ;
#235 = APPROVAL_STATUS ( 'not_yet_approved' ) ;
#236 = EDGE_CURVE ( 'NONE', #169, #225, #266, .T. ) ;
#237 = CARTESIAN_POINT ( 'NONE',  ( 0.000000000000000000, 0.000000000000000000, 0.000000000000000000 ) ) ;
#238 = EDGE_CURVE ( 'NONE', #87, #69, #241, .T. ) ;
#239 = ORIENTED_EDGE ( 'NONE', *, *, #43, .T. ) ;
#240 = CIRCLE ( 'NONE', #308, 2.999999999999990674 ) ;
#241 = CIRCLE ( 'NONE', #136, 2.400000000000001688 ) ;
#242 = ORIENTED_EDGE ( 'NONE', *, *, #224, .F. ) ;
#243 = EDGE_LOOP ( 'NONE', ( #229, #121, #28, #165 ) ) ;
#244 = DIRECTION ( 'NONE',  ( 0.000000000000000000, 1.000000000000000000, 0.000000000000000000 ) ) ;
#245 = EDGE_LOOP ( 'NONE', ( #92, #143 ) ) ;
#246 = CC_DESIGN_APPROVAL ( #12, ( #21 ) ) ;
#247 = CARTESIAN_POINT ( 'NONE',  ( 3.673940397442045077E-16, -2.999999999999998224, -3.673940397442070222E-16 ) ) ;
#248 = DIRECTION ( 'NONE',  ( -3.491481338843133355E-15, 1.224646799147353207E-16, -1.000000000000000000 ) ) ;
#249 = AXIS2_PLACEMENT_3D ( 'NONE', #62, #311, #233 ) ;
#250 = VECTOR ( 'NONE', #76, 1000.000000000000000 ) ;
#251 = DIRECTION ( 'NONE',  ( 4.275831445896958607E-31, 1.000000000000000000, 1.224646799147353454E-16 ) ) ;
#252 = DIRECTION ( 'NONE',  ( 3.491481338843133355E-15, -1.224646799147353207E-16, 1.000000000000000000 ) ) ;
#253 = CARTESIAN_POINT ( 'NONE',  ( 0.000000000000000000, 0.000000000000000000, 0.000000000000000000 ) ) ;
#254 = FACE_OUTER_BOUND ( 'NONE', #3, .T. ) ;
#255 = AXIS2_PLACEMENT_3D ( 'NONE', #304, #220, #58 ) ;
#256 = APPROVAL_ROLE ( '' ) ;
#257 = COORDINATED_UNIVERSAL_TIME_OFFSET ( 1, 0, .AHEAD. ) ;
#258 = CLOSED_SHELL ( 'NONE', ( #116, #49, #20, #106 ) ) ;
#259 = EDGE_CURVE ( 'NONE', #225, #265, #6, .T. ) ;
#260 = AXIS2_PLACEMENT_3D ( 'NONE', #196, #170, #95 ) ;
#261 = EDGE_LOOP ( 'NONE', ( #191, #295, #147, #37 ) ) ;
#262 = EDGE_CURVE ( 'NONE', #213, #230, #294, .T. ) ;
#263 = PERSON_AND_ORGANIZATION_ROLE ( 'creator' ) ;
#264 = CC_DESIGN_PERSON_AND_ORGANIZATION_ASSIGNMENT ( #46, #90, ( #98 ) ) ;
#265 = VERTEX_POINT ( 'NONE', #164 ) ;
#266 = LINE ( 'NONE', #104, #35 ) ;
#267 = CARTESIAN_POINT ( 'NONE',  ( 2.786017173415675146E-13, -2.400000000000011458, 80.00000000000000000 ) ) ;
#268 = DIRECTION ( 'NONE',  ( 0.000000000000000000, 1.000000000000000000, 0.000000000000000000 ) ) ;
#269 = CC_DESIGN_SECURITY_CLASSIFICATION ( #98, ( #91 ) ) ;
#270 = ORIENTED_EDGE ( 'NONE', *, *, #149, .F. ) ;
#271 =( LENGTH_UNIT ( ) NAMED_UNIT ( * ) SI_UNIT ( .MILLI., .METRE. ) );
#272 = EDGE_CURVE ( 'NONE', #169, #101, #1, .T. ) ;
#273 = LOCAL_TIME ( 9, 9, 5.000000000000000000, #257 ) ;
#274 = CARTESIAN_POINT ( 'NONE',  ( 0.000000000000000000, 0.000000000000000000, 0.000000000000000000 ) ) ;
#275 = FACE_OUTER_BOUND ( 'NONE', #217, .T. ) ;
#276 = PERSON ( 'UNSPECIFIED', 'UNSPECIFIED', 'UNSPECIFIED', ('UNSPECIFIED'), ('UNSPECIFIED'), ('UNSPECIFIED') ) ;
#277 = CARTESIAN_POINT ( 'NONE',  ( 2.793185071074506684E-13, -9.797174393178826052E-15, 80.00000000000000000 ) ) ;
#278 = CARTESIAN_POINT ( 'NONE',  ( 6.670553947776362560E-14, -3.000000000000000444, 38.00000000000000000 ) ) ;
#279 = CIRCLE ( 'NONE', #216, 3.000000000000000888 ) ;
#280 = DIRECTION ( 'NONE',  ( 4.275831445896958607E-31, 1.000000000000000000, 1.224646799147352961E-16 ) ) ;
#281 = PLANE ( 'NONE',  #129 ) ;
#282 = PLANE ( 'NONE',  #255 ) ;
#283 = EDGE_LOOP ( 'NONE', ( #52, #239, #89, #9 ) ) ;
#284 = VECTOR ( 'NONE', #306, 1000.000000000000000 ) ;
#285 = APPROVAL_STATUS ( 'not_yet_approved' ) ;
#286 = DIRECTION ( 'NONE',  ( -3.491481338843133355E-15, 1.224646799147353207E-16, -1.000000000000000000 ) ) ;
#287 = PERSON_AND_ORGANIZATION_ROLE ( 'design_supplier' ) ;
#288 = EDGE_LOOP ( 'NONE', ( #31, #23 ) ) ;
#289 = DIRECTION ( 'NONE',  ( 0.000000000000000000, 1.000000000000000000, 0.000000000000000000 ) ) ;
#290 = COORDINATED_UNIVERSAL_TIME_OFFSET ( 1, 0, .AHEAD. ) ;
#291 = AXIS2_PLACEMENT_3D ( 'NONE', #296, #117, #102 ) ;
#292 = ORIENTED_EDGE ( 'NONE', *, *, #159, .T. ) ;
#293 = UNCERTAINTY_MEASURE_WITH_UNIT (LENGTH_MEASURE( 1.000000000000000082E-05 ), #271, 'distance_accuracy_value', 'NONE');
#294 = LINE ( 'NONE', #218, #250 ) ;
#295 = ORIENTED_EDGE ( 'NONE', *, *, #97, .T. ) ;
#296 = CARTESIAN_POINT ( 'NONE',  ( 2.793185071074506684E-13, 1.799711739194215445E-32, 80.00000000000000000 ) ) ;
#297 = ORIENTED_EDGE ( 'NONE', *, *, #262, .T. ) ;
#298 = PERSON_AND_ORGANIZATION ( #276, #79 ) ;
#299 = AXIS2_PLACEMENT_3D ( 'NONE', #81, #42, #134 ) ;
#300 = EDGE_CURVE ( 'NONE', #69, #87, #131, .T. ) ;
#301 = ADVANCED_FACE ( 'NONE', ( #33 ), #71, .F. ) ;
#302 = DIRECTION ( 'NONE',  ( -3.491481338843133355E-15, 1.224646799147353207E-16, -1.000000000000000000 ) ) ;
#303 = CC_DESIGN_APPROVAL ( #44, ( #98 ) ) ;
#304 = CARTESIAN_POINT ( 'NONE',  ( 1.326762908760390423E-13, 2.249639673992776285E-32, 38.00000000000000000 ) ) ;
#305 = CARTESIAN_POINT ( 'NONE',  ( 1.326762908760390423E-13, 2.999999999999991118, 38.00000000000000000 ) ) ;
#306 = DIRECTION ( 'NONE',  ( -3.491481338843133355E-15, 1.224646799147353207E-16, -1.000000000000000000 ) ) ;
#307 = DIRECTION ( 'NONE',  ( -3.491481338843133355E-15, 1.224646799147353207E-16, -1.000000000000000000 ) ) ;
#308 = AXIS2_PLACEMENT_3D ( 'NONE', #22, #286, #66 ) ;
#309 = AXIS2_PLACEMENT_3D ( 'NONE', #140, #30, #268 ) ;
#310 = CARTESIAN_POINT ( 'NONE',  ( 2.053173486298359882E-13, -3.000000000000010658, 79.39999999999999147 ) ) ;
#311 = DIRECTION ( 'NONE',  ( -3.491481338843133355E-15, 1.224646799147353207E-16, -1.000000000000000000 ) ) ;
#312 = ADVANCED_FACE ( 'NONE', ( #142 ), #8, .F. ) ;
#313 = CALENDAR_DATE ( 2023, 31, 3 ) ;
ENDSEC;
END-ISO-10303-21;
