ISO-10303-21;
HEADER;
FILE_DESCRIPTION (( 'STEP AP203' ),
    '1' );
FILE_NAME ('372746.step',
    '2023-03-31T07:09:05',
    ( '' ),
    ( '' ),
    'SwSTEP 2.0',
    'SolidWorks 2022',
    '' );
FILE_SCHEMA (( 'CONFIG_CONTROL_DESIGN' ));
ENDSEC;

DATA;
#1 = AXIS2_PLACEMENT_3D ( 'NONE', #142, #284, #307 ) ;
#2 = ORIENTED_EDGE ( 'NONE', *, *, #263, .F. ) ;
#3 = ORIENTED_EDGE ( 'NONE', *, *, #147, .F. ) ;
#4 = ORIENTED_EDGE ( 'NONE', *, *, #14, .T. ) ;
#5 = CLOSED_SHELL ( 'NONE', ( #164, #205, #112, #101 ) ) ;
#6 = VERTEX_POINT ( 'NONE', #152 ) ;
#7 = CARTESIAN_POINT ( 'NONE',  ( 3.673940397442038174E-16, -2.999999999999992895, -3.673940397442062826E-16 ) ) ;
#8 = PERSON_AND_ORGANIZATION ( #264, #187 ) ;
#9 = ORIENTED_EDGE ( 'NONE', *, *, #176, .T. ) ;
#10 = CARTESIAN_POINT ( 'NONE',  ( 1.047444401652940007E-13, -3.673940397442059178E-15, 30.00000000000000000 ) ) ;
#11 = APPROVAL_STATUS ( 'not_yet_approved' ) ;
#12 = EDGE_LOOP ( 'NONE', ( #293, #30, #275, #155 ) ) ;
#13 = CIRCLE ( 'NONE', #185, 2.999999999999994671 ) ;
#14 = EDGE_CURVE ( 'NONE', #104, #130, #244, .T. ) ;
#15 = EDGE_CURVE ( 'NONE', #250, #268, #165, .T. ) ;
#16 = DIRECTION ( 'NONE',  ( -3.491481338843133355E-15, 1.224646799147353207E-16, -1.000000000000000000 ) ) ;
#17 = CYLINDRICAL_SURFACE ( 'NONE', #37, 2.999999999999998224 ) ;
#18 = CC_DESIGN_PERSON_AND_ORGANIZATION_ASSIGNMENT ( #206, #180, ( #93 ) ) ;
#19 = DIRECTION ( 'NONE',  ( 4.275831445896958607E-31, 1.000000000000000000, 1.224646799147352961E-16 ) ) ;
#20 = FACE_OUTER_BOUND ( 'NONE', #12, .T. ) ;
#21 = CARTESIAN_POINT ( 'NONE',  ( 2.444036937190193601E-13, -8.572527594031472993E-15, 70.00000000000000000 ) ) ;
#22 = PLANE ( 'NONE',  #34 ) ;
#23 = CALENDAR_DATE ( 2023, 31, 3 ) ;
#24 = ORIENTED_EDGE ( 'NONE', *, *, #92, .F. ) ;
#25 = DIRECTION ( 'NONE',  ( -2.468850131082271655E-15, 0.7071067811865455743, -0.7071067811865493491 ) ) ;
#26 = APPROVAL_DATE_TIME ( #271, #136 ) ;
#27 = ORIENTED_EDGE ( 'NONE', *, *, #43, .T. ) ;
#28 = CARTESIAN_POINT ( 'NONE',  ( 2.444036937190193601E-13, 2.399999999999992806, 70.00000000000000000 ) ) ;
#29 = APPROVAL_ROLE ( '' ) ;
#30 = ORIENTED_EDGE ( 'NONE', *, *, #124, .T. ) ;
#31 = LINE ( 'NONE', #239, #216 ) ;
#32 = DATE_AND_TIME ( #23, #286 ) ;
#33 = ORIENTED_EDGE ( 'NONE', *, *, #74, .F. ) ;
#34 = AXIS2_PLACEMENT_3D ( 'NONE', #125, #214, #246 ) ;
#35 = CARTESIAN_POINT ( 'NONE',  ( 1.047444401652940007E-13, 2.999999999999991562, 30.00000000000000000 ) ) ;
#36 = DIRECTION ( 'NONE',  ( 0.000000000000000000, 1.000000000000000000, 0.000000000000000000 ) ) ;
#37 = AXIS2_PLACEMENT_3D ( 'NONE', #40, #91, #141 ) ;
#38 = FACE_OUTER_BOUND ( 'NONE', #56, .T. ) ;
#39 = CARTESIAN_POINT ( 'NONE',  ( 0.000000000000000000, 0.000000000000000000, 0.000000000000000000 ) ) ;
#40 = CARTESIAN_POINT ( 'NONE',  ( 0.000000000000000000, 0.000000000000000000, 0.000000000000000000 ) ) ;
#41 = EDGE_CURVE ( 'NONE', #296, #238, #145, .T. ) ;
#42 = AXIS2_PLACEMENT_3D ( 'NONE', #221, #100, #173 ) ;
#43 = EDGE_CURVE ( 'NONE', #268, #250, #191, .T. ) ;
#44 = APPROVAL_PERSON_ORGANIZATION ( #298, #49, #29 ) ;
#45 = PRODUCT_DEFINITION_SHAPE ( 'NONE', 'NONE',  #237 ) ;
#46 = MANIFOLD_SOLID_BREP ( 'Corps-Déplacer/Copier1[2]', #5 ) ;
#47 = PRODUCT_DEFINITION_FORMATION_WITH_SPECIFIED_SOURCE ( 'ANY', '', #93, .NOT_KNOWN. ) ;
#48 = CARTESIAN_POINT ( 'NONE',  ( -1.710321079297537539E-30, 5.998998797370000203E-32, -4.898554261969033220E-16 ) ) ;
#49 = APPROVAL ( #204, 'UNSPECIFIED' ) ;
#50 = LINE ( 'NONE', #107, #127 ) ;
#51 = APPROVAL_DATE_TIME ( #201, #261 ) ;
#52 = ORIENTED_EDGE ( 'NONE', *, *, #280, .F. ) ;
#53 = CARTESIAN_POINT ( 'NONE',  ( 2.444036937190193601E-13, -8.572527594031472993E-15, 70.00000000000000000 ) ) ;
#54 = AXIS2_PLACEMENT_3D ( 'NONE', #211, #87, #36 ) ;
#55 = DATE_AND_TIME ( #223, #117 ) ;
#56 = EDGE_LOOP ( 'NONE', ( #241, #295, #52, #2 ) ) ;
#57 = DIRECTION ( 'NONE',  ( -3.491481338843133355E-15, 1.224646799147353207E-16, -1.000000000000000000 ) ) ;
#58 = PERSON_AND_ORGANIZATION ( #264, #187 ) ;
#59 = ORIENTED_EDGE ( 'NONE', *, *, #14, .F. ) ;
#60 = DIRECTION ( 'NONE',  ( 0.000000000000000000, 1.000000000000000000, 0.000000000000000000 ) ) ;
#61 = CARTESIAN_POINT ( 'NONE',  ( 2.423088049157134675E-13, -8.499048786082631273E-15, 69.40000000000000568 ) ) ;
#62 = CIRCLE ( 'NONE', #234, 2.999999999999994671 ) ;
#63 = AXIS2_PLACEMENT_3D ( 'NONE', #114, #209, #306 ) ;
#64 = APPLICATION_PROTOCOL_DEFINITION ( 'international standard', 'config_control_design', 1994, #118 ) ;
#65 = CARTESIAN_POINT ( 'NONE',  ( 1.282749433769084429E-30, 2.999999999999992895, 3.673940397442050500E-16 ) ) ;
#66 = EDGE_CURVE ( 'NONE', #151, #6, #31, .T. ) ;
#67 = CONICAL_SURFACE ( 'NONE', #251, 2.400000000000001688, 0.7853981633974453924 ) ;
#68 = DIRECTION ( 'NONE',  ( 4.275831445896958607E-31, 1.000000000000000000, 1.224646799147353207E-16 ) ) ;
#69 = EDGE_LOOP ( 'NONE', ( #9, #217 ) ) ;
#70 = DIRECTION ( 'NONE',  ( -3.491481338843133355E-15, 1.224646799147353207E-16, -1.000000000000000000 ) ) ;
#71 = CC_DESIGN_PERSON_AND_ORGANIZATION_ASSIGNMENT ( #171, #290, ( #181 ) ) ;
#72 = EDGE_LOOP ( 'NONE', ( #33, #220, #272, #269 ) ) ;
#73 = VERTEX_POINT ( 'NONE', #288 ) ;
#74 = EDGE_CURVE ( 'NONE', #130, #151, #266, .T. ) ;
#75 = CARTESIAN_POINT ( 'NONE',  ( 2.436869039531362063E-13, -2.400000000000010125, 70.00000000000000000 ) ) ;
#76 = ORIENTED_EDGE ( 'NONE', *, *, #43, .F. ) ;
#77 = EDGE_LOOP ( 'NONE', ( #4, #81, #97, #24 ) ) ;
#78 = AXIS2_PLACEMENT_3D ( 'NONE', #254, #259, #144 ) ;
#79 = CC_DESIGN_APPROVAL ( #261, ( #237 ) ) ;
#80 = DATE_TIME_ROLE ( 'classification_date' ) ;
#81 = ORIENTED_EDGE ( 'NONE', *, *, #74, .T. ) ;
#82 = DATE_AND_TIME ( #110, #159 ) ;
#83 = DIRECTION ( 'NONE',  ( 0.000000000000000000, 1.000000000000000000, 0.000000000000000000 ) ) ;
#84 = FACE_OUTER_BOUND ( 'NONE', #123, .T. ) ;
#85 = CIRCLE ( 'NONE', #258, 3.000000000000001332 ) ;
#86 = CARTESIAN_POINT ( 'NONE',  ( 2.444036937190193601E-13, 1.799711739194217087E-32, 70.00000000000000000 ) ) ;
#87 = DIRECTION ( 'NONE',  ( -3.491481338843133355E-15, 1.224646799147353207E-16, -1.000000000000000000 ) ) ;
#88 = DIRECTION ( 'NONE',  ( 0.000000000000000000, 1.000000000000000000, 0.000000000000000000 ) ) ;
#89 = LOCAL_TIME ( 9, 9, 5.000000000000000000, #219 ) ;
#90 = DIRECTION ( 'NONE',  ( -3.491481338843133355E-15, 1.224646799147353207E-16, -1.000000000000000000 ) ) ;
#91 = DIRECTION ( 'NONE',  ( -3.491481338843133355E-15, 1.224646799147353207E-16, -1.000000000000000000 ) ) ;
#92 = EDGE_CURVE ( 'NONE', #104, #73, #50, .T. ) ;
#93 = PRODUCT ( '372746', '372746', '', ( #162 ) ) ;
#94 = DIRECTION ( 'NONE',  ( 0.000000000000000000, 1.000000000000000000, 0.000000000000000000 ) ) ;
#95 = AXIS2_PLACEMENT_3D ( 'NONE', #128, #273, #218 ) ;
#96 = CARTESIAN_POINT ( 'NONE',  ( 1.738940165802478007E-13, -3.000000000000009770, 69.40000000000000568 ) ) ;
#97 = ORIENTED_EDGE ( 'NONE', *, *, #158, .F. ) ;
#98 = ORIENTED_EDGE ( 'NONE', *, *, #242, .T. ) ;
#99 = CC_DESIGN_APPROVAL ( #49, ( #181 ) ) ;
#100 = DIRECTION ( 'NONE',  ( -3.491481338843133355E-15, 1.224646799147353207E-16, -1.000000000000000000 ) ) ;
#101 = ADVANCED_FACE ( 'NONE', ( #154 ), #22, .T. ) ;
#102 = DIRECTION ( 'NONE',  ( -3.491481338843133355E-15, 1.224646799147353207E-16, -1.000000000000000000 ) ) ;
#103 = CALENDAR_DATE ( 2023, 31, 3 ) ;
#104 = VERTEX_POINT ( 'NONE', #28 ) ;
#105 = DIRECTION ( 'NONE',  ( -3.491481338843133355E-15, 1.224646799147353207E-16, -1.000000000000000000 ) ) ;
#106 = ORIENTED_EDGE ( 'NONE', *, *, #212, .T. ) ;
#107 = CARTESIAN_POINT ( 'NONE',  ( 2.444036937190193601E-13, 2.399999999999992806, 70.00000000000000000 ) ) ;
#108 = CALENDAR_DATE ( 2023, 31, 3 ) ;
#109 = CIRCLE ( 'NONE', #260, 3.000000000000001332 ) ;
#110 = CALENDAR_DATE ( 2023, 31, 3 ) ;
#111 = DATE_TIME_ROLE ( 'creation_date' ) ;
#112 = ADVANCED_FACE ( 'NONE', ( #291 ), #243, .T. ) ;
#113 = CIRCLE ( 'NONE', #297, 2.400000000000001688 ) ;
#114 = CARTESIAN_POINT ( 'NONE',  ( 0.000000000000000000, 0.000000000000000000, 0.000000000000000000 ) ) ;
#115 = CARTESIAN_POINT ( 'NONE',  ( -4.275716455284538985E-31, 2.999999999999990674, -1.224613864526984692E-16 ) ) ;
#116 = AXIS2_PLACEMENT_3D ( 'NONE', #53, #122, #248 ) ;
#117 = LOCAL_TIME ( 9, 9, 5.000000000000000000, #274 ) ;
#118 = APPLICATION_CONTEXT ( 'configuration controlled 3d designs of mechanical parts and assemblies' ) ;
#119 = CARTESIAN_POINT ( 'NONE',  ( -1.710321079297537539E-30, 5.998998797370000203E-32, -4.898554261969033220E-16 ) ) ;
#120 = LOCAL_TIME ( 9, 9, 5.000000000000000000, #135 ) ;
#121 = CC_DESIGN_DATE_AND_TIME_ASSIGNMENT ( #32, #80, ( #181 ) ) ;
#122 = DIRECTION ( 'NONE',  ( -3.491481338843133355E-15, 1.224646799147353207E-16, -1.000000000000000000 ) ) ;
#123 = EDGE_LOOP ( 'NONE', ( #168, #98, #299, #199 ) ) ;
#124 = EDGE_CURVE ( 'NONE', #268, #296, #294, .T. ) ;
#125 = CARTESIAN_POINT ( 'NONE',  ( 1.047444401652940007E-13, 2.249639673992777380E-32, 30.00000000000000000 ) ) ;
#126 = SHAPE_DEFINITION_REPRESENTATION ( #45, #313 ) ;
#127 = VECTOR ( 'NONE', #25, 1000.000000000000114 ) ;
#128 = CARTESIAN_POINT ( 'NONE',  ( 0.000000000000000000, 0.000000000000000000, 0.000000000000000000 ) ) ;
#129 = PERSON_AND_ORGANIZATION ( #264, #187 ) ;
#130 = VERTEX_POINT ( 'NONE', #75 ) ;
#131 = ORIENTED_EDGE ( 'NONE', *, *, #124, .F. ) ;
#132 = PERSON_AND_ORGANIZATION_ROLE ( 'design_supplier' ) ;
#133 = DIRECTION ( 'NONE',  ( -3.491481338843133355E-15, 1.224646799147353207E-16, -1.000000000000000000 ) ) ;
#134 = PERSON_AND_ORGANIZATION_ROLE ( 'creator' ) ;
#135 = COORDINATED_UNIVERSAL_TIME_OFFSET ( 1, 0, .AHEAD. ) ;
#136 = APPROVAL ( #300, 'UNSPECIFIED' ) ;
#137 = CARTESIAN_POINT ( 'NONE',  ( 1.047444401652940007E-13, -3.673940397442059178E-15, 30.00000000000000000 ) ) ;
#138 = ADVANCED_FACE ( 'NONE', ( #146 ), #67, .T. ) ;
#139 = DIRECTION ( 'NONE',  ( 4.275831445896958607E-31, 1.000000000000000000, 1.224646799147353207E-16 ) ) ;
#140 = FACE_OUTER_BOUND ( 'NONE', #245, .T. ) ;
#141 = DIRECTION ( 'NONE',  ( 4.275831445896958607E-31, 1.000000000000000000, 1.224646799147353454E-16 ) ) ;
#142 = CARTESIAN_POINT ( 'NONE',  ( 1.047444401652940007E-13, 2.249639673992777380E-32, 30.00000000000000000 ) ) ;
#143 = APPROVAL_PERSON_ORGANIZATION ( #222, #261, #174 ) ;
#144 = DIRECTION ( 'NONE',  ( -4.275831445896958607E-31, -1.000000000000000000, -1.224646799147353207E-16 ) ) ;
#145 = CIRCLE ( 'NONE', #179, 2.999999999999990674 ) ;
#146 = FACE_OUTER_BOUND ( 'NONE', #77, .T. ) ;
#147 = EDGE_CURVE ( 'NONE', #130, #104, #113, .T. ) ;
#148 = EDGE_LOOP ( 'NONE', ( #131, #27, #106, #167 ) ) ;
#149 = DIRECTION ( 'NONE',  ( 4.275831445896958607E-31, 1.000000000000000000, 1.224646799147353207E-16 ) ) ;
#150 = PERSON_AND_ORGANIZATION ( #264, #187 ) ;
#151 = VERTEX_POINT ( 'NONE', #96 ) ;
#152 = CARTESIAN_POINT ( 'NONE',  ( 1.738940165802479016E-13, -2.999999999999998224, 30.00000000000000000 ) ) ;
#153 = EDGE_LOOP ( 'NONE', ( #175, #200 ) ) ;
#154 = FACE_OUTER_BOUND ( 'NONE', #156, .T. ) ;
#155 = ORIENTED_EDGE ( 'NONE', *, *, #212, .F. ) ;
#156 = EDGE_LOOP ( 'NONE', ( #247, #76 ) ) ;
#157 = APPROVAL_ROLE ( '' ) ;
#158 = EDGE_CURVE ( 'NONE', #73, #151, #85, .T. ) ;
#159 = LOCAL_TIME ( 9, 9, 5.000000000000000000, #276 ) ;
#160 = DIRECTION ( 'NONE',  ( -3.491481338843133355E-15, 1.224646799147353207E-16, -1.000000000000000000 ) ) ;
#161 =( LENGTH_UNIT ( ) NAMED_UNIT ( * ) SI_UNIT ( .MILLI., .METRE. ) );
#162 = MECHANICAL_CONTEXT ( 'NONE', #118, 'mechanical' ) ;
#163 = CARTESIAN_POINT ( 'NONE',  ( 0.000000000000000000, 0.000000000000000000, 0.000000000000000000 ) ) ;
#164 = ADVANCED_FACE ( 'NONE', ( #20 ), #193, .T. ) ;
#165 = CIRCLE ( 'NONE', #42, 2.999999999999994671 ) ;
#166 = CARTESIAN_POINT ( 'NONE',  ( 2.446976089508147649E-13, -2.400000000000010125, 70.00000000000000000 ) ) ;
#167 = ORIENTED_EDGE ( 'NONE', *, *, #41, .F. ) ;
#168 = ORIENTED_EDGE ( 'NONE', *, *, #66, .F. ) ;
#169 = DESIGN_CONTEXT ( 'detailed design', #189, 'design' ) ;
#170 = DIRECTION ( 'NONE',  ( 0.000000000000000000, 1.000000000000000000, 0.000000000000000000 ) ) ;
#171 = PERSON_AND_ORGANIZATION ( #264, #187 ) ;
#172 = VECTOR ( 'NONE', #262, 1000.000000000000000 ) ;
#173 = DIRECTION ( 'NONE',  ( 0.000000000000000000, 1.000000000000000000, 0.000000000000000000 ) ) ;
#174 = APPROVAL_ROLE ( '' ) ;
#175 = ORIENTED_EDGE ( 'NONE', *, *, #280, .T. ) ;
#176 = EDGE_CURVE ( 'NONE', #238, #296, #304, .T. ) ;
#177 = APPROVAL_DATE_TIME ( #55, #49 ) ;
#178 = ADVANCED_FACE ( 'NONE', ( #84 ), #17, .T. ) ;
#179 = AXIS2_PLACEMENT_3D ( 'NONE', #48, #194, #149 ) ;
#180 = PERSON_AND_ORGANIZATION_ROLE ( 'design_owner' ) ;
#181 = SECURITY_CLASSIFICATION ( '', '', #198 ) ;
#182 = DIRECTION ( 'NONE',  ( -3.491481338843133355E-15, 1.224646799147353207E-16, -1.000000000000000000 ) ) ;
#183 = PLANE ( 'NONE',  #78 ) ;
#184 =( NAMED_UNIT ( * ) PLANE_ANGLE_UNIT ( ) SI_UNIT ( $, .RADIAN. ) );
#185 = AXIS2_PLACEMENT_3D ( 'NONE', #137, #160, #83 ) ;
#186 = PLANE ( 'NONE',  #1 ) ;
#187 = ORGANIZATION ( 'UNSPECIFIED', 'UNSPECIFIED', '' ) ;
#188 = CC_DESIGN_DATE_AND_TIME_ASSIGNMENT ( #82, #111, ( #237 ) ) ;
#189 = APPLICATION_CONTEXT ( 'configuration controlled 3d designs of mechanical parts and assemblies' ) ;
#190 = ADVANCED_FACE ( 'NONE', ( #229 ), #186, .F. ) ;
#191 = CIRCLE ( 'NONE', #207, 2.999999999999994671 ) ;
#192 = APPROVAL_PERSON_ORGANIZATION ( #58, #136, #157 ) ;
#193 = CYLINDRICAL_SURFACE ( 'NONE', #225, 2.999999999999992895 ) ;
#194 = DIRECTION ( 'NONE',  ( -3.491481338843133355E-15, 1.224646799147353207E-16, -1.000000000000000000 ) ) ;
#195 = VECTOR ( 'NONE', #57, 1000.000000000000000 ) ;
#196 = CC_DESIGN_APPROVAL ( #136, ( #47 ) ) ;
#197 = DIRECTION ( 'NONE',  ( 0.000000000000000000, 1.000000000000000000, 0.000000000000000000 ) ) ;
#198 = SECURITY_CLASSIFICATION_LEVEL ( 'unclassified' ) ;
#199 = ORIENTED_EDGE ( 'NONE', *, *, #230, .F. ) ;
#200 = ORIENTED_EDGE ( 'NONE', *, *, #230, .T. ) ;
#201 = DATE_AND_TIME ( #108, #89 ) ;
#202 = VECTOR ( 'NONE', #311, 1000.000000000000000 ) ;
#203 =( GEOMETRIC_REPRESENTATION_CONTEXT ( 3 ) GLOBAL_UNCERTAINTY_ASSIGNED_CONTEXT ( ( #292 ) ) GLOBAL_UNIT_ASSIGNED_CONTEXT ( ( #161, #184, #281 ) ) REPRESENTATION_CONTEXT ( 'NONE', 'WORKASPACE' ) );
#204 = APPROVAL_STATUS ( 'not_yet_approved' ) ;
#205 = ADVANCED_FACE ( 'NONE', ( #256 ), #183, .F. ) ;
#206 = PERSON_AND_ORGANIZATION ( #264, #187 ) ;
#207 = AXIS2_PLACEMENT_3D ( 'NONE', #10, #70, #197 ) ;
#208 = FACE_OUTER_BOUND ( 'NONE', #72, .T. ) ;
#209 = DIRECTION ( 'NONE',  ( 0.000000000000000000, 0.000000000000000000, 1.000000000000000000 ) ) ;
#210 = CARTESIAN_POINT ( 'NONE',  ( 1.282749433769086881E-30, 2.999999999999998224, 3.673940397442057896E-16 ) ) ;
#211 = CARTESIAN_POINT ( 'NONE',  ( 2.444036937190193601E-13, -8.572527594031472993E-15, 70.00000000000000000 ) ) ;
#212 = EDGE_CURVE ( 'NONE', #250, #238, #235, .T. ) ;
#213 = CLOSED_SHELL ( 'NONE', ( #138, #303, #190, #178, #289, #312 ) ) ;
#214 = DIRECTION ( 'NONE',  ( 3.491481338843133355E-15, -1.224646799147353207E-16, 1.000000000000000000 ) ) ;
#215 = CC_DESIGN_PERSON_AND_ORGANIZATION_ASSIGNMENT ( #8, #132, ( #47 ) ) ;
#216 = VECTOR ( 'NONE', #133, 1000.000000000000000 ) ;
#217 = ORIENTED_EDGE ( 'NONE', *, *, #41, .T. ) ;
#218 = DIRECTION ( 'NONE',  ( 4.275831445896958607E-31, 1.000000000000000000, 1.224646799147352961E-16 ) ) ;
#219 = COORDINATED_UNIVERSAL_TIME_OFFSET ( 1, 0, .AHEAD. ) ;
#220 = ORIENTED_EDGE ( 'NONE', *, *, #147, .T. ) ;
#221 = CARTESIAN_POINT ( 'NONE',  ( 1.047444401652940007E-13, -3.673940397442059178E-15, 30.00000000000000000 ) ) ;
#222 = PERSON_AND_ORGANIZATION ( #264, #187 ) ;
#223 = CALENDAR_DATE ( 2023, 31, 3 ) ;
#224 = CARTESIAN_POINT ( 'NONE',  ( 5.273961412239118684E-14, -2.999999999999990674, -8.572494659412921766E-16 ) ) ;
#225 = AXIS2_PLACEMENT_3D ( 'NONE', #163, #279, #19 ) ;
#226 = CC_DESIGN_SECURITY_CLASSIFICATION ( #181, ( #47 ) ) ;
#227 = CARTESIAN_POINT ( 'NONE',  ( 2.423088049157134675E-13, -8.499048786082631273E-15, 69.40000000000000568 ) ) ;
#228 = PRODUCT_RELATED_PRODUCT_CATEGORY ( 'detail', '', ( #93 ) ) ;
#229 = FACE_OUTER_BOUND ( 'NONE', #153, .T. ) ;
#230 = EDGE_CURVE ( 'NONE', #6, #265, #62, .T. ) ;
#231 = AXIS2_PLACEMENT_3D ( 'NONE', #39, #182, #309 ) ;
#232 = DIRECTION ( 'NONE',  ( -3.491481338843133355E-15, 1.224646799147353207E-16, -1.000000000000000000 ) ) ;
#233 = DIRECTION ( 'NONE',  ( 0.000000000000000000, 1.000000000000000000, 0.000000000000000000 ) ) ;
#234 = AXIS2_PLACEMENT_3D ( 'NONE', #267, #102, #88 ) ;
#235 = LINE ( 'NONE', #65, #202 ) ;
#236 = CARTESIAN_POINT ( 'NONE',  ( 2.444036937190193601E-13, -8.572527594031472993E-15, 70.00000000000000000 ) ) ;
#237 = PRODUCT_DEFINITION ( 'UNKNOWN', '', #47, #169 ) ;
#238 = VERTEX_POINT ( 'NONE', #115 ) ;
#239 = CARTESIAN_POINT ( 'NONE',  ( 3.673940397442045077E-16, -2.999999999999998224, -3.673940397442070222E-16 ) ) ;
#240 = PERSON_AND_ORGANIZATION_ROLE ( 'creator' ) ;
#241 = ORIENTED_EDGE ( 'NONE', *, *, #158, .T. ) ;
#242 = EDGE_CURVE ( 'NONE', #151, #73, #109, .T. ) ;
#243 = CYLINDRICAL_SURFACE ( 'NONE', #95, 2.999999999999992895 ) ;
#244 = CIRCLE ( 'NONE', #116, 2.400000000000001688 ) ;
#245 = EDGE_LOOP ( 'NONE', ( #59, #3 ) ) ;
#246 = DIRECTION ( 'NONE',  ( -4.275831445896958607E-31, -1.000000000000000000, -1.224646799147353207E-16 ) ) ;
#247 = ORIENTED_EDGE ( 'NONE', *, *, #15, .F. ) ;
#248 = DIRECTION ( 'NONE',  ( 0.000000000000000000, 1.000000000000000000, 0.000000000000000000 ) ) ;
#249 = COORDINATED_UNIVERSAL_TIME_OFFSET ( 1, 0, .AHEAD. ) ;
#250 = VERTEX_POINT ( 'NONE', #35 ) ;
#251 = AXIS2_PLACEMENT_3D ( 'NONE', #236, #105, #170 ) ;
#252 = CARTESIAN_POINT ( 'NONE',  ( 1.047444401652940007E-13, 2.999999999999991562, 30.00000000000000000 ) ) ;
#253 = DIRECTION ( 'NONE',  ( -3.491481338843133355E-15, 1.224646799147353207E-16, -1.000000000000000000 ) ) ;
#254 = CARTESIAN_POINT ( 'NONE',  ( -8.551605396487687697E-31, 2.999499398685000102E-32, -2.449277130984516610E-16 ) ) ;
#255 = CYLINDRICAL_SURFACE ( 'NONE', #231, 2.999999999999998224 ) ;
#256 = FACE_OUTER_BOUND ( 'NONE', #69, .T. ) ;
#257 = MANIFOLD_SOLID_BREP ( 'Corps-Déplacer/Copier1[1]', #213 ) ;
#258 = AXIS2_PLACEMENT_3D ( 'NONE', #61, #232, #233 ) ;
#259 = DIRECTION ( 'NONE',  ( 3.491481338843133355E-15, -1.224646799147353207E-16, 1.000000000000000000 ) ) ;
#260 = AXIS2_PLACEMENT_3D ( 'NONE', #227, #16, #60 ) ;
#261 = APPROVAL ( #11, 'UNSPECIFIED' ) ;
#262 = DIRECTION ( 'NONE',  ( -2.382254525458723780E-15, -0.7071067811865453523, -0.7071067811865496822 ) ) ;
#263 = EDGE_CURVE ( 'NONE', #73, #265, #302, .T. ) ;
#264 = PERSON ( 'UNSPECIFIED', 'UNSPECIFIED', 'UNSPECIFIED', ('UNSPECIFIED'), ('UNSPECIFIED'), ('UNSPECIFIED') ) ;
#265 = VERTEX_POINT ( 'NONE', #252 ) ;
#266 = LINE ( 'NONE', #166, #172 ) ;
#267 = CARTESIAN_POINT ( 'NONE',  ( 1.047444401652940007E-13, -3.673940397442059178E-15, 30.00000000000000000 ) ) ;
#268 = VERTEX_POINT ( 'NONE', #305 ) ;
#269 = ORIENTED_EDGE ( 'NONE', *, *, #242, .F. ) ;
#270 = AXIS2_PLACEMENT_3D ( 'NONE', #119, #287, #68 ) ;
#271 = DATE_AND_TIME ( #103, #120 ) ;
#272 = ORIENTED_EDGE ( 'NONE', *, *, #92, .T. ) ;
#273 = DIRECTION ( 'NONE',  ( -3.491481338843133355E-15, 1.224646799147353207E-16, -1.000000000000000000 ) ) ;
#274 = COORDINATED_UNIVERSAL_TIME_OFFSET ( 1, 0, .AHEAD. ) ;
#275 = ORIENTED_EDGE ( 'NONE', *, *, #176, .F. ) ;
#276 = COORDINATED_UNIVERSAL_TIME_OFFSET ( 1, 0, .AHEAD. ) ;
#277 = CC_DESIGN_PERSON_AND_ORGANIZATION_ASSIGNMENT ( #129, #240, ( #47 ) ) ;
#278 = APPLICATION_PROTOCOL_DEFINITION ( 'international standard', 'config_control_design', 1994, #189 ) ;
#279 = DIRECTION ( 'NONE',  ( -3.491481338843133355E-15, 1.224646799147353207E-16, -1.000000000000000000 ) ) ;
#280 = EDGE_CURVE ( 'NONE', #265, #6, #13, .T. ) ;
#281 =( NAMED_UNIT ( * ) SI_UNIT ( $, .STERADIAN. ) SOLID_ANGLE_UNIT ( ) );
#282 = PLANE ( 'NONE',  #310 ) ;
#283 = VECTOR ( 'NONE', #90, 1000.000000000000000 ) ;
#284 = DIRECTION ( 'NONE',  ( 3.491481338843133355E-15, -1.224646799147353207E-16, 1.000000000000000000 ) ) ;
#285 = DIRECTION ( 'NONE',  ( -3.491481338843133355E-15, 1.224646799147353207E-16, -1.000000000000000000 ) ) ;
#286 = LOCAL_TIME ( 9, 9, 5.000000000000000000, #249 ) ;
#287 = DIRECTION ( 'NONE',  ( -3.491481338843133355E-15, 1.224646799147353207E-16, -1.000000000000000000 ) ) ;
#288 = CARTESIAN_POINT ( 'NONE',  ( 2.423088049157134675E-13, 2.999999999999992895, 69.40000000000000568 ) ) ;
#289 = ADVANCED_FACE ( 'NONE', ( #208 ), #308, .T. ) ;
#290 = PERSON_AND_ORGANIZATION_ROLE ( 'classification_officer' ) ;
#291 = FACE_OUTER_BOUND ( 'NONE', #148, .T. ) ;
#292 = UNCERTAINTY_MEASURE_WITH_UNIT (LENGTH_MEASURE( 1.000000000000000082E-05 ), #161, 'distance_accuracy_value', 'NONE');
#293 = ORIENTED_EDGE ( 'NONE', *, *, #15, .T. ) ;
#294 = LINE ( 'NONE', #7, #195 ) ;
#295 = ORIENTED_EDGE ( 'NONE', *, *, #66, .T. ) ;
#296 = VERTEX_POINT ( 'NONE', #224 ) ;
#297 = AXIS2_PLACEMENT_3D ( 'NONE', #21, #285, #94 ) ;
#298 = PERSON_AND_ORGANIZATION ( #264, #187 ) ;
#299 = ORIENTED_EDGE ( 'NONE', *, *, #263, .T. ) ;
#300 = APPROVAL_STATUS ( 'not_yet_approved' ) ;
#301 = CC_DESIGN_PERSON_AND_ORGANIZATION_ASSIGNMENT ( #150, #134, ( #237 ) ) ;
#302 = LINE ( 'NONE', #210, #283 ) ;
#303 = ADVANCED_FACE ( 'NONE', ( #38 ), #255, .T. ) ;
#304 = CIRCLE ( 'NONE', #270, 2.999999999999990674 ) ;
#305 = CARTESIAN_POINT ( 'NONE',  ( 5.273961412239113635E-14, -2.999999999999998224, 30.00000000000000000 ) ) ;
#306 = DIRECTION ( 'NONE',  ( 1.000000000000000000, 0.000000000000000000, 0.000000000000000000 ) ) ;
#307 = DIRECTION ( 'NONE',  ( -4.275831445896958607E-31, -1.000000000000000000, -1.224646799147353207E-16 ) ) ;
#308 = CONICAL_SURFACE ( 'NONE', #54, 2.400000000000001688, 0.7853981633974453924 ) ;
#309 = DIRECTION ( 'NONE',  ( 4.275831445896958607E-31, 1.000000000000000000, 1.224646799147353454E-16 ) ) ;
#310 = AXIS2_PLACEMENT_3D ( 'NONE', #86, #253, #139 ) ;
#311 = DIRECTION ( 'NONE',  ( -3.491481338843133355E-15, 1.224646799147353207E-16, -1.000000000000000000 ) ) ;
#312 = ADVANCED_FACE ( 'NONE', ( #140 ), #282, .F. ) ;
#313 = ADVANCED_BREP_SHAPE_REPRESENTATION ( '372746', ( #257, #46, #63 ), #203 ) ;
ENDSEC;
END-ISO-10303-21;
