ISO-10303-21;
HEADER;
FILE_DESCRIPTION (( 'STEP AP203' ),
    '1' );
FILE_NAME ('372745.step',
    '2023-03-31T07:09:04',
    ( '' ),
    ( '' ),
    'SwSTEP 2.0',
    'SolidWorks 2022',
    '' );
FILE_SCHEMA (( 'CONFIG_CONTROL_DESIGN' ));
ENDSEC;

DATA;
#1 = APPROVAL_DATE_TIME ( #31, #71 ) ;
#2 = CLOSED_SHELL ( 'NONE', ( #279, #219, #213, #270 ) ) ;
#3 = AXIS2_PLACEMENT_3D ( 'NONE', #195, #170, #90 ) ;
#4 = APPROVAL_ROLE ( '' ) ;
#5 = DIRECTION ( 'NONE',  ( -3.491481338843133355E-15, 1.224646799147353207E-16, -1.000000000000000000 ) ) ;
#6 = EDGE_CURVE ( 'NONE', #207, #112, #236, .T. ) ;
#7 = LINE ( 'NONE', #298, #149 ) ;
#8 = SHAPE_DEFINITION_REPRESENTATION ( #48, #87 ) ;
#9 = CLOSED_SHELL ( 'NONE', ( #118, #83, #104, #159, #129, #121 ) ) ;
#10 = CARTESIAN_POINT ( 'NONE',  ( -1.710320073810254334E-30, 5.998995270595364895E-32, -4.898551382138996187E-16 ) ) ;
#11 = AXIS2_PLACEMENT_3D ( 'NONE', #229, #54, #101 ) ;
#12 = DATE_AND_TIME ( #157, #199 ) ;
#13 = EDGE_LOOP ( 'NONE', ( #184, #210 ) ) ;
#14 = CARTESIAN_POINT ( 'NONE',  ( 3.702794809759709305E-14, -2.999999999999990674, -8.572491779582336475E-16 ) ) ;
#15 = ORIENTED_EDGE ( 'NONE', *, *, #183, .T. ) ;
#16 = PRODUCT_RELATED_PRODUCT_CATEGORY ( 'detail', '', ( #290 ) ) ;
#17 = ORIENTED_EDGE ( 'NONE', *, *, #6, .F. ) ;
#18 = AXIS2_PLACEMENT_3D ( 'NONE', #177, #248, #280 ) ;
#19 = CARTESIAN_POINT ( 'NONE',  ( 1.282749433769086006E-30, 2.999999999999996003, 3.673940397442054938E-16 ) ) ;
#20 = ORIENTED_EDGE ( 'NONE', *, *, #212, .T. ) ;
#21 = EDGE_CURVE ( 'NONE', #181, #303, #66, .T. ) ;
#22 = PERSON_AND_ORGANIZATION_ROLE ( 'creator' ) ;
#23 = PLANE ( 'NONE',  #244 ) ;
#24 = CC_DESIGN_APPROVAL ( #88, ( #261 ) ) ;
#25 = CC_DESIGN_PERSON_AND_ORGANIZATION_ASSIGNMENT ( #126, #152, ( #133 ) ) ;
#26 = PERSON_AND_ORGANIZATION ( #102, #240 ) ;
#27 = DIRECTION ( 'NONE',  ( 4.275831445896959482E-31, 1.000000000000000000, 1.224646799147353207E-16 ) ) ;
#28 = DIRECTION ( 'NONE',  ( -2.382254525458723780E-15, -0.7071067811865453523, -0.7071067811865496822 ) ) ;
#29 = CIRCLE ( 'NONE', #171, 2.999999999999993339 ) ;
#30 = DIRECTION ( 'NONE',  ( 4.275831445896958607E-31, 1.000000000000000000, 1.224646799147353207E-16 ) ) ;
#31 = DATE_AND_TIME ( #154, #86 ) ;
#32 = CC_DESIGN_DATE_AND_TIME_ASSIGNMENT ( #283, #281, ( #131 ) ) ;
#33 = AXIS2_PLACEMENT_3D ( 'NONE', #96, #5, #198 ) ;
#34 = DIRECTION ( 'NONE',  ( 4.275831445896959482E-31, 1.000000000000000000, 1.224646799147353207E-16 ) ) ;
#35 = DIRECTION ( 'NONE',  ( -3.491481338843133355E-15, 1.224646799147353207E-16, -1.000000000000000000 ) ) ;
#36 = CARTESIAN_POINT ( 'NONE',  ( 2.094888803305880013E-13, -7.347880794884118356E-15, 60.00000000000000000 ) ) ;
#37 = VECTOR ( 'NONE', #28, 1000.000000000000000 ) ;
#38 = COORDINATED_UNIVERSAL_TIME_OFFSET ( 1, 0, .AHEAD. ) ;
#39 = VERTEX_POINT ( 'NONE', #272 ) ;
#40 = APPROVAL ( #300, 'UNSPECIFIED' ) ;
#41 = COORDINATED_UNIVERSAL_TIME_OFFSET ( 1, 0, .AHEAD. ) ;
#42 = DIRECTION ( 'NONE',  ( 4.275831445896958607E-31, 1.000000000000000000, 1.224646799147353207E-16 ) ) ;
#43 = CC_DESIGN_PERSON_AND_ORGANIZATION_ASSIGNMENT ( #26, #264, ( #290 ) ) ;
#44 = PERSON_AND_ORGANIZATION ( #102, #240 ) ;
#45 = CARTESIAN_POINT ( 'NONE',  ( 1.407249438612381285E-13, -2.999999999999996003, 21.00000000000000000 ) ) ;
#46 = APPROVAL_PERSON_ORGANIZATION ( #94, #71, #189 ) ;
#47 = CARTESIAN_POINT ( 'NONE',  ( 2.094888803305880013E-13, -7.347880794884118356E-15, 60.00000000000000000 ) ) ;
#48 = PRODUCT_DEFINITION_SHAPE ( 'NONE', 'NONE',  #133 ) ;
#49 = CIRCLE ( 'NONE', #67, 2.399999999999999023 ) ;
#50 = FACE_OUTER_BOUND ( 'NONE', #111, .T. ) ;
#51 = PERSON_AND_ORGANIZATION ( #102, #240 ) ;
#52 = CARTESIAN_POINT ( 'NONE',  ( -4.275706400411707808E-31, 2.999999999999990674, -1.224610984696948398E-16 ) ) ;
#53 = CIRCLE ( 'NONE', #33, 2.999999999999993339 ) ;
#54 = DIRECTION ( 'NONE',  ( 3.491481338843133355E-15, -1.224646799147353207E-16, 1.000000000000000000 ) ) ;
#55 = CYLINDRICAL_SURFACE ( 'NONE', #278, 2.999999999999992450 ) ;
#56 = CONICAL_SURFACE ( 'NONE', #100, 2.399999999999999023, 0.7853981633974453924 ) ;
#57 = ORIENTED_EDGE ( 'NONE', *, *, #183, .F. ) ;
#58 = ORIENTED_EDGE ( 'NONE', *, *, #251, .F. ) ;
#59 = ORIENTED_EDGE ( 'NONE', *, *, #185, .T. ) ;
#60 = CIRCLE ( 'NONE', #161, 2.999999999999990674 ) ;
#61 = COORDINATED_UNIVERSAL_TIME_OFFSET ( 1, 0, .AHEAD. ) ;
#62 = ORIENTED_EDGE ( 'NONE', *, *, #21, .F. ) ;
#63 = CALENDAR_DATE ( 2023, 31, 3 ) ;
#64 = DIRECTION ( 'NONE',  ( -3.491481338843133355E-15, 1.224646799147353207E-16, -1.000000000000000000 ) ) ;
#65 = DIRECTION ( 'NONE',  ( -3.491481338843133355E-15, 1.224646799147353207E-16, -1.000000000000000000 ) ) ;
#66 = CIRCLE ( 'NONE', #250, 2.999999999999990674 ) ;
#67 = AXIS2_PLACEMENT_3D ( 'NONE', #36, #180, #282 ) ;
#68 = CARTESIAN_POINT ( 'NONE',  ( 2.073939915272820834E-13, 2.999999999999991562, 59.39999999999999147 ) ) ;
#69 = MECHANICAL_CONTEXT ( 'NONE', #117, 'mechanical' ) ;
#70 = DIRECTION ( 'NONE',  ( -3.491481338843133355E-15, 1.224646799147353207E-16, -1.000000000000000000 ) ) ;
#71 = APPROVAL ( #245, 'UNSPECIFIED' ) ;
#72 = LINE ( 'NONE', #125, #291 ) ;
#73 = CARTESIAN_POINT ( 'NONE',  ( 2.094888803305880013E-13, 2.399999999999991473, 60.00000000000000000 ) ) ;
#74 = DIRECTION ( 'NONE',  ( -2.468850131082271655E-15, 0.7071067811865455743, -0.7071067811865493491 ) ) ;
#75 = VECTOR ( 'NONE', #204, 1000.000000000000000 ) ;
#76 = DIRECTION ( 'NONE',  ( 0.000000000000000000, 1.000000000000000000, 0.000000000000000000 ) ) ;
#77 = ORIENTED_EDGE ( 'NONE', *, *, #144, .F. ) ;
#78 = CC_DESIGN_APPROVAL ( #40, ( #131 ) ) ;
#79 = CC_DESIGN_PERSON_AND_ORGANIZATION_ASSIGNMENT ( #44, #145, ( #131 ) ) ;
#80 = ORIENTED_EDGE ( 'NONE', *, *, #185, .F. ) ;
#81 = DIRECTION ( 'NONE',  ( -4.275831445896958607E-31, -1.000000000000000000, -1.224646799147353207E-16 ) ) ;
#82 = ORIENTED_EDGE ( 'NONE', *, *, #251, .T. ) ;
#83 = ADVANCED_FACE ( 'NONE', ( #119 ), #309, .T. ) ;
#84 = APPROVAL_ROLE ( '' ) ;
#85 = VERTEX_POINT ( 'NONE', #68 ) ;
#86 = LOCAL_TIME ( 9, 9, 4.000000000000000000, #247 ) ;
#87 = ADVANCED_BREP_SHAPE_REPRESENTATION ( '372745', ( #110, #216, #234 ), #230 ) ;
#88 = APPROVAL ( #174, 'UNSPECIFIED' ) ;
#89 = EDGE_CURVE ( 'NONE', #39, #207, #143, .T. ) ;
#90 = DIRECTION ( 'NONE',  ( 4.275831445896958607E-31, 1.000000000000000000, 1.224646799147353207E-16 ) ) ;
#91 = AXIS2_PLACEMENT_3D ( 'NONE', #97, #202, #156 ) ;
#92 = DIRECTION ( 'NONE',  ( 0.000000000000000000, 1.000000000000000000, 0.000000000000000000 ) ) ;
#93 = DIRECTION ( 'NONE',  ( -3.491481338843133355E-15, 1.224646799147353207E-16, -1.000000000000000000 ) ) ;
#94 = PERSON_AND_ORGANIZATION ( #102, #240 ) ;
#95 = AXIS2_PLACEMENT_3D ( 'NONE', #271, #64, #267 ) ;
#96 = CARTESIAN_POINT ( 'NONE',  ( 7.332110811570580046E-14, -2.571758278209441661E-15, 21.00000000000000000 ) ) ;
#97 = CARTESIAN_POINT ( 'NONE',  ( 2.073939915272820834E-13, -7.274401986935278213E-15, 59.39999999999999147 ) ) ;
#98 = CARTESIAN_POINT ( 'NONE',  ( 7.332110811570580046E-14, -2.571758278209441661E-15, 21.00000000000000000 ) ) ;
#99 = APPROVAL_DATE_TIME ( #12, #40 ) ;
#100 = AXIS2_PLACEMENT_3D ( 'NONE', #292, #192, #148 ) ;
#101 = DIRECTION ( 'NONE',  ( -4.275831445896958607E-31, -1.000000000000000000, -1.224646799147353207E-16 ) ) ;
#102 = PERSON ( 'UNSPECIFIED', 'UNSPECIFIED', 'UNSPECIFIED', ('UNSPECIFIED'), ('UNSPECIFIED'), ('UNSPECIFIED') ) ;
#103 = EDGE_CURVE ( 'NONE', #39, #233, #122, .T. ) ;
#104 = ADVANCED_FACE ( 'NONE', ( #172 ), #23, .F. ) ;
#105 = DIRECTION ( 'NONE',  ( -3.491481338843133355E-15, 1.224646799147353207E-16, -1.000000000000000000 ) ) ;
#106 = EDGE_CURVE ( 'NONE', #137, #263, #302, .T. ) ;
#107 = ORIENTED_EDGE ( 'NONE', *, *, #239, .F. ) ;
#108 = DIRECTION ( 'NONE',  ( -3.491481338843133355E-15, 1.224646799147353207E-16, -1.000000000000000000 ) ) ;
#109 = ORIENTED_EDGE ( 'NONE', *, *, #176, .T. ) ;
#110 = MANIFOLD_SOLID_BREP ( 'Corps-Déplacer/Copier1[1]', #9 ) ;
#111 = EDGE_LOOP ( 'NONE', ( #17, #258, #82, #165 ) ) ;
#112 = VERTEX_POINT ( 'NONE', #45 ) ;
#113 = PERSON_AND_ORGANIZATION_ROLE ( 'design_supplier' ) ;
#114 = DIRECTION ( 'NONE',  ( 3.491481338843133355E-15, -1.224646799147353207E-16, 1.000000000000000000 ) ) ;
#115 = LOCAL_TIME ( 9, 9, 4.000000000000000000, #38 ) ;
#116 = DATE_AND_TIME ( #63, #297 ) ;
#117 = APPLICATION_CONTEXT ( 'configuration controlled 3d designs of mechanical parts and assemblies' ) ;
#118 = ADVANCED_FACE ( 'NONE', ( #146 ), #187, .T. ) ;
#119 = FACE_OUTER_BOUND ( 'NONE', #265, .T. ) ;
#120 = CARTESIAN_POINT ( 'NONE',  ( 0.000000000000000000, 0.000000000000000000, 0.000000000000000000 ) ) ;
#121 = ADVANCED_FACE ( 'NONE', ( #241 ), #289, .F. ) ;
#122 = CIRCLE ( 'NONE', #310, 2.399999999999999023 ) ;
#123 = CARTESIAN_POINT ( 'NONE',  ( 7.332110811570580046E-14, -2.571758278209441661E-15, 21.00000000000000000 ) ) ;
#124 = APPLICATION_PROTOCOL_DEFINITION ( 'international standard', 'config_control_design', 1994, #117 ) ;
#125 = CARTESIAN_POINT ( 'NONE',  ( 2.094888803305880013E-13, 2.399999999999991473, 60.00000000000000000 ) ) ;
#126 = PERSON_AND_ORGANIZATION ( #102, #240 ) ;
#127 = AXIS2_PLACEMENT_3D ( 'NONE', #47, #307, #92 ) ;
#128 = CARTESIAN_POINT ( 'NONE',  ( 0.000000000000000000, 0.000000000000000000, 0.000000000000000000 ) ) ;
#129 = ADVANCED_FACE ( 'NONE', ( #242 ), #56, .T. ) ;
#130 = FACE_OUTER_BOUND ( 'NONE', #13, .T. ) ;
#131 = SECURITY_CLASSIFICATION ( '', '', #215 ) ;
#132 = ORIENTED_EDGE ( 'NONE', *, *, #144, .T. ) ;
#133 = PRODUCT_DEFINITION ( 'UNKNOWN', '', #261, #308 ) ;
#134 = COORDINATED_UNIVERSAL_TIME_OFFSET ( 1, 0, .AHEAD. ) ;
#135 = CARTESIAN_POINT ( 'NONE',  ( 3.702794809759707412E-14, -2.999999999999996003, 21.00000000000000000 ) ) ;
#136 = EDGE_LOOP ( 'NONE', ( #163, #132, #15, #107 ) ) ;
#137 = VERTEX_POINT ( 'NONE', #243 ) ;
#138 = CC_DESIGN_PERSON_AND_ORGANIZATION_ASSIGNMENT ( #51, #113, ( #261 ) ) ;
#139 = CYLINDRICAL_SURFACE ( 'NONE', #193, 2.999999999999992450 ) ;
#140 = AXIS2_PLACEMENT_3D ( 'NONE', #128, #252, #34 ) ;
#141 = EDGE_LOOP ( 'NONE', ( #286, #211, #20, #214 ) ) ;
#142 = DATE_AND_TIME ( #274, #254 ) ;
#143 = LINE ( 'NONE', #190, #37 ) ;
#144 = EDGE_CURVE ( 'NONE', #263, #137, #203, .T. ) ;
#145 = PERSON_AND_ORGANIZATION_ROLE ( 'classification_officer' ) ;
#146 = FACE_OUTER_BOUND ( 'NONE', #260, .T. ) ;
#147 = CARTESIAN_POINT ( 'NONE',  ( -1.710320073810254334E-30, 5.998995270595364895E-32, -4.898551382138996187E-16 ) ) ;
#148 = DIRECTION ( 'NONE',  ( 0.000000000000000000, 1.000000000000000000, 0.000000000000000000 ) ) ;
#149 = VECTOR ( 'NONE', #35, 1000.000000000000000 ) ;
#150 = AXIS2_PLACEMENT_3D ( 'NONE', #253, #231, #81 ) ;
#151 = DIRECTION ( 'NONE',  ( -3.491481338843133355E-15, 1.224646799147353207E-16, -1.000000000000000000 ) ) ;
#152 = PERSON_AND_ORGANIZATION_ROLE ( 'creator' ) ;
#153 = CYLINDRICAL_SURFACE ( 'NONE', #140, 2.999999999999996003 ) ;
#154 = CALENDAR_DATE ( 2023, 31, 3 ) ;
#155 = CIRCLE ( 'NONE', #18, 2.999999999999998668 ) ;
#156 = DIRECTION ( 'NONE',  ( 0.000000000000000000, 1.000000000000000000, 0.000000000000000000 ) ) ;
#157 = CALENDAR_DATE ( 2023, 31, 3 ) ;
#158 = FACE_OUTER_BOUND ( 'NONE', #304, .T. ) ;
#159 = ADVANCED_FACE ( 'NONE', ( #50 ), #153, .T. ) ;
#160 = CALENDAR_DATE ( 2023, 31, 3 ) ;
#161 = AXIS2_PLACEMENT_3D ( 'NONE', #10, #295, #262 ) ;
#162 = CARTESIAN_POINT ( 'NONE',  ( 7.332110811570580046E-14, 2.999999999999991118, 21.00000000000000000 ) ) ;
#163 = ORIENTED_EDGE ( 'NONE', *, *, #226, .F. ) ;
#164 = EDGE_LOOP ( 'NONE', ( #205, #232 ) ) ;
#165 = ORIENTED_EDGE ( 'NONE', *, *, #169, .F. ) ;
#166 = EDGE_LOOP ( 'NONE', ( #109, #288 ) ) ;
#167 = PERSON_AND_ORGANIZATION ( #102, #240 ) ;
#168 = ORIENTED_EDGE ( 'NONE', *, *, #106, .F. ) ;
#169 = EDGE_CURVE ( 'NONE', #112, #301, #29, .T. ) ;
#170 = DIRECTION ( 'NONE',  ( -3.491481338843133355E-15, 1.224646799147353207E-16, -1.000000000000000000 ) ) ;
#171 = AXIS2_PLACEMENT_3D ( 'NONE', #98, #151, #76 ) ;
#172 = FACE_OUTER_BOUND ( 'NONE', #166, .T. ) ;
#173 = AXIS2_PLACEMENT_3D ( 'NONE', #120, #93, #27 ) ;
#174 = APPROVAL_STATUS ( 'not_yet_approved' ) ;
#175 = FACE_OUTER_BOUND ( 'NONE', #136, .T. ) ;
#176 = EDGE_CURVE ( 'NONE', #301, #112, #53, .T. ) ;
#177 = CARTESIAN_POINT ( 'NONE',  ( 2.073939915272820834E-13, -7.274401986935278213E-15, 59.39999999999999147 ) ) ;
#178 = AXIS2_PLACEMENT_3D ( 'NONE', #123, #179, #224 ) ;
#179 = DIRECTION ( 'NONE',  ( -3.491481338843133355E-15, 1.224646799147353207E-16, -1.000000000000000000 ) ) ;
#180 = DIRECTION ( 'NONE',  ( -3.491481338843133355E-15, 1.224646799147353207E-16, -1.000000000000000000 ) ) ;
#181 = VERTEX_POINT ( 'NONE', #52 ) ;
#182 = ORIENTED_EDGE ( 'NONE', *, *, #176, .F. ) ;
#183 = EDGE_CURVE ( 'NONE', #137, #181, #7, .T. ) ;
#184 = ORIENTED_EDGE ( 'NONE', *, *, #21, .T. ) ;
#185 = EDGE_CURVE ( 'NONE', #85, #207, #155, .T. ) ;
#186 = ORIENTED_EDGE ( 'NONE', *, *, #89, .T. ) ;
#187 = CONICAL_SURFACE ( 'NONE', #127, 2.399999999999999023, 0.7853981633974453924 ) ;
#188 = ORIENTED_EDGE ( 'NONE', *, *, #106, .T. ) ;
#189 = APPROVAL_ROLE ( '' ) ;
#190 = CARTESIAN_POINT ( 'NONE',  ( 2.097827955623833808E-13, -2.400000000000006128, 60.00000000000000000 ) ) ;
#191 = CARTESIAN_POINT ( 'NONE',  ( 3.673940397442042119E-16, -2.999999999999996003, -3.673940397442067264E-16 ) ) ;
#192 = DIRECTION ( 'NONE',  ( -3.491481338843133355E-15, 1.224646799147353207E-16, -1.000000000000000000 ) ) ;
#193 = AXIS2_PLACEMENT_3D ( 'NONE', #235, #105, #285 ) ;
#194 = CC_DESIGN_PERSON_AND_ORGANIZATION_ASSIGNMENT ( #167, #22, ( #261 ) ) ;
#195 = CARTESIAN_POINT ( 'NONE',  ( 2.094888803305880013E-13, 1.799711739194217087E-32, 60.00000000000000000 ) ) ;
#196 = APPLICATION_PROTOCOL_DEFINITION ( 'international standard', 'config_control_design', 1994, #256 ) ;
#197 = EDGE_CURVE ( 'NONE', #207, #85, #221, .T. ) ;
#198 = DIRECTION ( 'NONE',  ( 0.000000000000000000, 1.000000000000000000, 0.000000000000000000 ) ) ;
#199 = LOCAL_TIME ( 9, 9, 4.000000000000000000, #134 ) ;
#200 =( NAMED_UNIT ( * ) PLANE_ANGLE_UNIT ( ) SI_UNIT ( $, .RADIAN. ) );
#201 = CARTESIAN_POINT ( 'NONE',  ( 3.673940397442037681E-16, -2.999999999999992450, -3.673940397442062333E-16 ) ) ;
#202 = DIRECTION ( 'NONE',  ( -3.491481338843133355E-15, 1.224646799147353207E-16, -1.000000000000000000 ) ) ;
#203 = CIRCLE ( 'NONE', #178, 2.999999999999993339 ) ;
#204 = DIRECTION ( 'NONE',  ( -3.491481338843133355E-15, 1.224646799147353207E-16, -1.000000000000000000 ) ) ;
#205 = ORIENTED_EDGE ( 'NONE', *, *, #255, .F. ) ;
#206 = PERSON_AND_ORGANIZATION ( #102, #240 ) ;
#207 = VERTEX_POINT ( 'NONE', #296 ) ;
#208 = VECTOR ( 'NONE', #108, 1000.000000000000000 ) ;
#209 = FACE_OUTER_BOUND ( 'NONE', #287, .T. ) ;
#210 = ORIENTED_EDGE ( 'NONE', *, *, #239, .T. ) ;
#211 = ORIENTED_EDGE ( 'NONE', *, *, #103, .T. ) ;
#212 = EDGE_CURVE ( 'NONE', #233, #85, #72, .T. ) ;
#213 = ADVANCED_FACE ( 'NONE', ( #175 ), #55, .T. ) ;
#214 = ORIENTED_EDGE ( 'NONE', *, *, #197, .F. ) ;
#215 = SECURITY_CLASSIFICATION_LEVEL ( 'unclassified' ) ;
#216 = MANIFOLD_SOLID_BREP ( 'Corps-Déplacer/Copier1[2]', #2 ) ;
#217 = DIRECTION ( 'NONE',  ( -4.275831445896958607E-31, -1.000000000000000000, -1.224646799147353207E-16 ) ) ;
#218 = CARTESIAN_POINT ( 'NONE',  ( 7.332110811570580046E-14, 2.249639673992777654E-32, 21.00000000000000000 ) ) ;
#219 = ADVANCED_FACE ( 'NONE', ( #130 ), #275, .F. ) ;
#220 = CARTESIAN_POINT ( 'NONE',  ( 2.094888803305880013E-13, -7.347880794884118356E-15, 60.00000000000000000 ) ) ;
#221 = CIRCLE ( 'NONE', #91, 2.999999999999998668 ) ;
#222 = CARTESIAN_POINT ( 'NONE',  ( 0.000000000000000000, 0.000000000000000000, 0.000000000000000000 ) ) ;
#223 = DATE_TIME_ROLE ( 'creation_date' ) ;
#224 = DIRECTION ( 'NONE',  ( 0.000000000000000000, 1.000000000000000000, 0.000000000000000000 ) ) ;
#225 = CC_DESIGN_DATE_AND_TIME_ASSIGNMENT ( #116, #223, ( #133 ) ) ;
#226 = EDGE_CURVE ( 'NONE', #263, #303, #227, .T. ) ;
#227 = LINE ( 'NONE', #201, #75 ) ;
#228 = CC_DESIGN_APPROVAL ( #71, ( #133 ) ) ;
#229 = CARTESIAN_POINT ( 'NONE',  ( -8.551600369051271670E-31, 2.999497635297682448E-32, -2.449275691069498094E-16 ) ) ;
#230 =( GEOMETRIC_REPRESENTATION_CONTEXT ( 3 ) GLOBAL_UNCERTAINTY_ASSIGNED_CONTEXT ( ( #237 ) ) GLOBAL_UNIT_ASSIGNED_CONTEXT ( ( #276, #200, #312 ) ) REPRESENTATION_CONTEXT ( 'NONE', 'WORKASPACE' ) );
#231 = DIRECTION ( 'NONE',  ( 3.491481338843133355E-15, -1.224646799147353207E-16, 1.000000000000000000 ) ) ;
#232 = ORIENTED_EDGE ( 'NONE', *, *, #103, .F. ) ;
#233 = VERTEX_POINT ( 'NONE', #73 ) ;
#234 = AXIS2_PLACEMENT_3D ( 'NONE', #222, #249, #293 ) ;
#235 = CARTESIAN_POINT ( 'NONE',  ( 0.000000000000000000, 0.000000000000000000, 0.000000000000000000 ) ) ;
#236 = LINE ( 'NONE', #191, #268 ) ;
#237 = UNCERTAINTY_MEASURE_WITH_UNIT (LENGTH_MEASURE( 1.000000000000000082E-05 ), #276, 'distance_accuracy_value', 'NONE');
#238 = DIRECTION ( 'NONE',  ( 0.000000000000000000, 1.000000000000000000, 0.000000000000000000 ) ) ;
#239 = EDGE_CURVE ( 'NONE', #303, #181, #60, .T. ) ;
#240 = ORGANIZATION ( 'UNSPECIFIED', 'UNSPECIFIED', '' ) ;
#241 = FACE_OUTER_BOUND ( 'NONE', #164, .T. ) ;
#242 = FACE_OUTER_BOUND ( 'NONE', #141, .T. ) ;
#243 = CARTESIAN_POINT ( 'NONE',  ( 7.332110811570580046E-14, 2.999999999999991118, 21.00000000000000000 ) ) ;
#244 = AXIS2_PLACEMENT_3D ( 'NONE', #218, #114, #217 ) ;
#245 = APPROVAL_STATUS ( 'not_yet_approved' ) ;
#246 = DIRECTION ( 'NONE',  ( -3.491481338843133355E-15, 1.224646799147353207E-16, -1.000000000000000000 ) ) ;
#247 = COORDINATED_UNIVERSAL_TIME_OFFSET ( 1, 0, .AHEAD. ) ;
#248 = DIRECTION ( 'NONE',  ( -3.491481338843133355E-15, 1.224646799147353207E-16, -1.000000000000000000 ) ) ;
#249 = DIRECTION ( 'NONE',  ( 0.000000000000000000, 0.000000000000000000, 1.000000000000000000 ) ) ;
#250 = AXIS2_PLACEMENT_3D ( 'NONE', #147, #70, #42 ) ;
#251 = EDGE_CURVE ( 'NONE', #85, #301, #305, .T. ) ;
#252 = DIRECTION ( 'NONE',  ( -3.491481338843133355E-15, 1.224646799147353207E-16, -1.000000000000000000 ) ) ;
#253 = CARTESIAN_POINT ( 'NONE',  ( 7.332110811570580046E-14, 2.249639673992777654E-32, 21.00000000000000000 ) ) ;
#254 = LOCAL_TIME ( 9, 9, 4.000000000000000000, #61 ) ;
#255 = EDGE_CURVE ( 'NONE', #233, #39, #49, .T. ) ;
#256 = APPLICATION_CONTEXT ( 'configuration controlled 3d designs of mechanical parts and assemblies' ) ;
#257 = ORIENTED_EDGE ( 'NONE', *, *, #255, .T. ) ;
#258 = ORIENTED_EDGE ( 'NONE', *, *, #197, .T. ) ;
#259 = PLANE ( 'NONE',  #150 ) ;
#260 = EDGE_LOOP ( 'NONE', ( #257, #186, #80, #306 ) ) ;
#261 = PRODUCT_DEFINITION_FORMATION_WITH_SPECIFIED_SOURCE ( 'ANY', '', #290, .NOT_KNOWN. ) ;
#262 = DIRECTION ( 'NONE',  ( 4.275831445896958607E-31, 1.000000000000000000, 1.224646799147353207E-16 ) ) ;
#263 = VERTEX_POINT ( 'NONE', #135 ) ;
#264 = PERSON_AND_ORGANIZATION_ROLE ( 'design_owner' ) ;
#265 = EDGE_LOOP ( 'NONE', ( #59, #284, #182, #58 ) ) ;
#266 = APPROVAL_DATE_TIME ( #142, #88 ) ;
#267 = DIRECTION ( 'NONE',  ( 0.000000000000000000, 1.000000000000000000, 0.000000000000000000 ) ) ;
#268 = VECTOR ( 'NONE', #65, 1000.000000000000000 ) ;
#269 = CC_DESIGN_SECURITY_CLASSIFICATION ( #131, ( #261 ) ) ;
#270 = ADVANCED_FACE ( 'NONE', ( #158 ), #259, .T. ) ;
#271 = CARTESIAN_POINT ( 'NONE',  ( 7.332110811570580046E-14, -2.571758278209441661E-15, 21.00000000000000000 ) ) ;
#272 = CARTESIAN_POINT ( 'NONE',  ( 2.087720905647048222E-13, -2.400000000000006128, 60.00000000000000000 ) ) ;
#273 = APPROVAL_PERSON_ORGANIZATION ( #313, #88, #84 ) ;
#274 = CALENDAR_DATE ( 2023, 31, 3 ) ;
#275 = PLANE ( 'NONE',  #11 ) ;
#276 =( LENGTH_UNIT ( ) NAMED_UNIT ( * ) SI_UNIT ( .MILLI., .METRE. ) );
#277 = CARTESIAN_POINT ( 'NONE',  ( 0.000000000000000000, 0.000000000000000000, 0.000000000000000000 ) ) ;
#278 = AXIS2_PLACEMENT_3D ( 'NONE', #277, #246, #30 ) ;
#279 = ADVANCED_FACE ( 'NONE', ( #209 ), #139, .T. ) ;
#280 = DIRECTION ( 'NONE',  ( 0.000000000000000000, 1.000000000000000000, 0.000000000000000000 ) ) ;
#281 = DATE_TIME_ROLE ( 'classification_date' ) ;
#282 = DIRECTION ( 'NONE',  ( 0.000000000000000000, 1.000000000000000000, 0.000000000000000000 ) ) ;
#283 = DATE_AND_TIME ( #160, #115 ) ;
#284 = ORIENTED_EDGE ( 'NONE', *, *, #6, .T. ) ;
#285 = DIRECTION ( 'NONE',  ( 4.275831445896958607E-31, 1.000000000000000000, 1.224646799147353207E-16 ) ) ;
#286 = ORIENTED_EDGE ( 'NONE', *, *, #89, .F. ) ;
#287 = EDGE_LOOP ( 'NONE', ( #188, #299, #62, #57 ) ) ;
#288 = ORIENTED_EDGE ( 'NONE', *, *, #169, .T. ) ;
#289 = PLANE ( 'NONE',  #3 ) ;
#290 = PRODUCT ( '372745', '372745', '', ( #69 ) ) ;
#291 = VECTOR ( 'NONE', #74, 1000.000000000000114 ) ;
#292 = CARTESIAN_POINT ( 'NONE',  ( 2.094888803305880013E-13, -7.347880794884118356E-15, 60.00000000000000000 ) ) ;
#293 = DIRECTION ( 'NONE',  ( 1.000000000000000000, 0.000000000000000000, 0.000000000000000000 ) ) ;
#294 = APPROVAL_PERSON_ORGANIZATION ( #206, #40, #4 ) ;
#295 = DIRECTION ( 'NONE',  ( -3.491481338843133355E-15, 1.224646799147353207E-16, -1.000000000000000000 ) ) ;
#296 = CARTESIAN_POINT ( 'NONE',  ( 1.407249438612380275E-13, -3.000000000000006217, 59.39999999999999147 ) ) ;
#297 = LOCAL_TIME ( 9, 9, 4.000000000000000000, #41 ) ;
#298 = CARTESIAN_POINT ( 'NONE',  ( 1.282749433769084254E-30, 2.999999999999992450, 3.673940397442050007E-16 ) ) ;
#299 = ORIENTED_EDGE ( 'NONE', *, *, #226, .T. ) ;
#300 = APPROVAL_STATUS ( 'not_yet_approved' ) ;
#301 = VERTEX_POINT ( 'NONE', #162 ) ;
#302 = CIRCLE ( 'NONE', #95, 2.999999999999993339 ) ;
#303 = VERTEX_POINT ( 'NONE', #14 ) ;
#304 = EDGE_LOOP ( 'NONE', ( #168, #77 ) ) ;
#305 = LINE ( 'NONE', #19, #208 ) ;
#306 = ORIENTED_EDGE ( 'NONE', *, *, #212, .F. ) ;
#307 = DIRECTION ( 'NONE',  ( -3.491481338843133355E-15, 1.224646799147353207E-16, -1.000000000000000000 ) ) ;
#308 = DESIGN_CONTEXT ( 'detailed design', #256, 'design' ) ;
#309 = CYLINDRICAL_SURFACE ( 'NONE', #173, 2.999999999999996003 ) ;
#310 = AXIS2_PLACEMENT_3D ( 'NONE', #220, #311, #238 ) ;
#311 = DIRECTION ( 'NONE',  ( -3.491481338843133355E-15, 1.224646799147353207E-16, -1.000000000000000000 ) ) ;
#312 =( NAMED_UNIT ( * ) SI_UNIT ( $, .STERADIAN. ) SOLID_ANGLE_UNIT ( ) );
#313 = PERSON_AND_ORGANIZATION ( #102, #240 ) ;
ENDSEC;
END-ISO-10303-21;
