ISO-10303-21;
HEADER;
FILE_DESCRIPTION (( 'STEP AP203' ),
    '1' );
FILE_NAME ('372744.step',
    '2023-03-31T07:09:04',
    ( '' ),
    ( '' ),
    'SwSTEP 2.0',
    'SolidWorks 2022',
    '' );
FILE_SCHEMA (( 'CONFIG_CONTROL_DESIGN' ));
ENDSEC;

DATA;
#1 = PERSON_AND_ORGANIZATION_ROLE ( 'design_owner' ) ;
#2 = LOCAL_TIME ( 9, 9, 4.000000000000000000, #222 ) ;
#3 = DIRECTION ( 'NONE',  ( -2.468850131082271655E-15, 0.7071067811865455743, -0.7071067811865493491 ) ) ;
#4 = DIRECTION ( 'NONE',  ( 0.000000000000000000, 1.000000000000000000, 0.000000000000000000 ) ) ;
#5 = DIRECTION ( 'NONE',  ( -3.491481338843133355E-15, 1.224646799147353207E-16, -1.000000000000000000 ) ) ;
#6 = APPROVAL ( #169, 'UNSPECIFIED' ) ;
#7 = CC_DESIGN_APPROVAL ( #6, ( #82 ) ) ;
#8 = EDGE_LOOP ( 'NONE', ( #11, #63 ) ) ;
#9 = PLANE ( 'NONE',  #231 ) ;
#10 = ADVANCED_FACE ( 'NONE', ( #180 ), #125, .T. ) ;
#11 = ORIENTED_EDGE ( 'NONE', *, *, #140, .T. ) ;
#12 = CLOSED_SHELL ( 'NONE', ( #106, #74, #137, #18 ) ) ;
#13 = PRODUCT_DEFINITION ( 'UNKNOWN', '', #82, #238 ) ;
#14 = ORIENTED_EDGE ( 'NONE', *, *, #91, .T. ) ;
#15 = ADVANCED_FACE ( 'NONE', ( #256 ), #36, .T. ) ;
#16 = APPROVAL_STATUS ( 'not_yet_approved' ) ;
#17 = DIRECTION ( 'NONE',  ( 0.000000000000000000, 1.000000000000000000, 0.000000000000000000 ) ) ;
#18 = ADVANCED_FACE ( 'NONE', ( #234 ), #9, .T. ) ;
#19 = DIRECTION ( 'NONE',  ( 0.000000000000000000, 1.000000000000000000, 0.000000000000000000 ) ) ;
#20 = DIRECTION ( 'NONE',  ( 4.275831445896958607E-31, 1.000000000000000000, 1.224646799147353207E-16 ) ) ;
#21 = VECTOR ( 'NONE', #308, 1000.000000000000000 ) ;
#22 = COORDINATED_UNIVERSAL_TIME_OFFSET ( 1, 0, .AHEAD. ) ;
#23 = DIRECTION ( 'NONE',  ( 4.275831445896958607E-31, 1.000000000000000000, 1.224646799147353207E-16 ) ) ;
#24 = EDGE_CURVE ( 'NONE', #127, #54, #282, .T. ) ;
#25 = ORIENTED_EDGE ( 'NONE', *, *, #165, .F. ) ;
#26 = ADVANCED_FACE ( 'NONE', ( #302 ), #257, .T. ) ;
#27 = AXIS2_PLACEMENT_3D ( 'NONE', #270, #142, #20 ) ;
#28 = CIRCLE ( 'NONE', #47, 2.400000000000003020 ) ;
#29 = ORIENTED_EDGE ( 'NONE', *, *, #132, .T. ) ;
#30 = DIRECTION ( 'NONE',  ( 0.000000000000000000, 1.000000000000000000, 0.000000000000000000 ) ) ;
#31 = DIRECTION ( 'NONE',  ( 0.000000000000000000, 1.000000000000000000, 0.000000000000000000 ) ) ;
#32 = VECTOR ( 'NONE', #276, 1000.000000000000000 ) ;
#33 = DIRECTION ( 'NONE',  ( 0.000000000000000000, 1.000000000000000000, 0.000000000000000000 ) ) ;
#34 = ADVANCED_FACE ( 'NONE', ( #119 ), #122, .T. ) ;
#35 = CARTESIAN_POINT ( 'NONE',  ( 2.436869039531362063E-13, -2.400000000000011458, 70.00000000000000000 ) ) ;
#36 = CONICAL_SURFACE ( 'NONE', #87, 2.400000000000003020, 0.7853981633974453924 ) ;
#37 = AXIS2_PLACEMENT_3D ( 'NONE', #281, #197, #225 ) ;
#38 = CC_DESIGN_PERSON_AND_ORGANIZATION_ASSIGNMENT ( #40, #1, ( #199 ) ) ;
#39 = CC_DESIGN_PERSON_AND_ORGANIZATION_ASSIGNMENT ( #265, #273, ( #82 ) ) ;
#40 = PERSON_AND_ORGANIZATION ( #90, #305 ) ;
#41 = CARTESIAN_POINT ( 'NONE',  ( 0.000000000000000000, 0.000000000000000000, 0.000000000000000000 ) ) ;
#42 = EDGE_CURVE ( 'NONE', #85, #84, #116, .T. ) ;
#43 = DATE_TIME_ROLE ( 'classification_date' ) ;
#44 = DIRECTION ( 'NONE',  ( -3.491481338843133355E-15, 1.224646799147353207E-16, -1.000000000000000000 ) ) ;
#45 = AXIS2_PLACEMENT_3D ( 'NONE', #196, #246, #23 ) ;
#46 = CARTESIAN_POINT ( 'NONE',  ( 5.237222008264700033E-14, 2.999999999999991562, 15.00000000000000000 ) ) ;
#47 = AXIS2_PLACEMENT_3D ( 'NONE', #124, #5, #105 ) ;
#48 = CARTESIAN_POINT ( 'NONE',  ( 2.655350408106768352E-14, -2.999999999999994671, 15.00000000000000000 ) ) ;
#49 = APPROVAL_DATE_TIME ( #64, #213 ) ;
#50 = CARTESIAN_POINT ( 'NONE',  ( 1.477079065389241932E-13, -3.000000000000011102, 69.40000000000000568 ) ) ;
#51 = PERSON_AND_ORGANIZATION ( #90, #305 ) ;
#52 = ORIENTED_EDGE ( 'NONE', *, *, #155, .F. ) ;
#53 = CYLINDRICAL_SURFACE ( 'NONE', #45, 2.999999999999992006 ) ;
#54 = VERTEX_POINT ( 'NONE', #312 ) ;
#55 = DIRECTION ( 'NONE',  ( -3.491481338843133355E-15, 1.224646799147353207E-16, -1.000000000000000000 ) ) ;
#56 = CARTESIAN_POINT ( 'NONE',  ( 1.282749433769084079E-30, 2.999999999999992006, 3.673940397442049514E-16 ) ) ;
#57 = APPLICATION_CONTEXT ( 'configuration controlled 3d designs of mechanical parts and assemblies' ) ;
#58 = ORIENTED_EDGE ( 'NONE', *, *, #83, .T. ) ;
#59 = DIRECTION ( 'NONE',  ( 0.000000000000000000, 1.000000000000000000, 0.000000000000000000 ) ) ;
#60 = CIRCLE ( 'NONE', #310, 2.400000000000003020 ) ;
#61 = CC_DESIGN_DATE_AND_TIME_ASSIGNMENT ( #69, #247, ( #13 ) ) ;
#62 = COORDINATED_UNIVERSAL_TIME_OFFSET ( 1, 0, .AHEAD. ) ;
#63 = ORIENTED_EDGE ( 'NONE', *, *, #165, .T. ) ;
#64 = DATE_AND_TIME ( #307, #295 ) ;
#65 = DIRECTION ( 'NONE',  ( 4.275831445896958607E-31, 1.000000000000000000, 1.224646799147353454E-16 ) ) ;
#66 = DIRECTION ( 'NONE',  ( -3.491481338843133355E-15, 1.224646799147353207E-16, -1.000000000000000000 ) ) ;
#67 = AXIS2_PLACEMENT_3D ( 'NONE', #146, #243, #266 ) ;
#68 = CARTESIAN_POINT ( 'NONE',  ( 5.237222008264700033E-14, -1.836970198721029589E-15, 15.00000000000000000 ) ) ;
#69 = DATE_AND_TIME ( #73, #2 ) ;
#70 = DIRECTION ( 'NONE',  ( -3.491481338843133355E-15, 1.224646799147353207E-16, -1.000000000000000000 ) ) ;
#71 = ADVANCED_FACE ( 'NONE', ( #189 ), #92, .F. ) ;
#72 = LINE ( 'NONE', #103, #89 ) ;
#73 = CALENDAR_DATE ( 2023, 31, 3 ) ;
#74 = ADVANCED_FACE ( 'NONE', ( #96 ), #95, .F. ) ;
#75 = DIRECTION ( 'NONE',  ( -3.491481338843133355E-15, 1.224646799147353207E-16, -1.000000000000000000 ) ) ;
#76 = CARTESIAN_POINT ( 'NONE',  ( 5.237222008264700033E-14, 2.249639673992779022E-32, 15.00000000000000000 ) ) ;
#77 = ORIENTED_EDGE ( 'NONE', *, *, #24, .T. ) ;
#78 = APPROVAL_PERSON_ORGANIZATION ( #98, #218, #126 ) ;
#79 = DIRECTION ( 'NONE',  ( 4.275831445896958607E-31, 1.000000000000000000, 1.224646799147353207E-16 ) ) ;
#80 = ORIENTED_EDGE ( 'NONE', *, *, #102, .T. ) ;
#81 = ORIENTED_EDGE ( 'NONE', *, *, #155, .T. ) ;
#82 = PRODUCT_DEFINITION_FORMATION_WITH_SPECIFIED_SOURCE ( 'ANY', '', #199, .NOT_KNOWN. ) ;
#83 = EDGE_CURVE ( 'NONE', #84, #85, #255, .T. ) ;
#84 = VERTEX_POINT ( 'NONE', #46 ) ;
#85 = VERTEX_POINT ( 'NONE', #289 ) ;
#86 = PERSON_AND_ORGANIZATION ( #90, #305 ) ;
#87 = AXIS2_PLACEMENT_3D ( 'NONE', #111, #162, #33 ) ;
#88 = ORIENTED_EDGE ( 'NONE', *, *, #83, .F. ) ;
#89 = VECTOR ( 'NONE', #173, 1000.000000000000000 ) ;
#90 = PERSON ( 'UNSPECIFIED', 'UNSPECIFIED', 'UNSPECIFIED', ('UNSPECIFIED'), ('UNSPECIFIED'), ('UNSPECIFIED') ) ;
#91 = EDGE_CURVE ( 'NONE', #164, #127, #221, .T. ) ;
#92 = PLANE ( 'NONE',  #27 ) ;
#93 = VECTOR ( 'NONE', #3, 1000.000000000000114 ) ;
#94 = EDGE_CURVE ( 'NONE', #164, #114, #117, .T. ) ;
#95 = PLANE ( 'NONE',  #67 ) ;
#96 = FACE_OUTER_BOUND ( 'NONE', #8, .T. ) ;
#97 = COORDINATED_UNIVERSAL_TIME_OFFSET ( 1, 0, .AHEAD. ) ;
#98 = PERSON_AND_ORGANIZATION ( #90, #305 ) ;
#99 = AXIS2_PLACEMENT_3D ( 'NONE', #166, #239, #17 ) ;
#100 = DIRECTION ( 'NONE',  ( -3.491481338843133355E-15, 1.224646799147353207E-16, -1.000000000000000000 ) ) ;
#101 = DIRECTION ( 'NONE',  ( -3.491481338843133355E-15, 1.224646799147353207E-16, -1.000000000000000000 ) ) ;
#102 = EDGE_CURVE ( 'NONE', #264, #211, #241, .T. ) ;
#103 = CARTESIAN_POINT ( 'NONE',  ( 3.673940397442044091E-16, -2.999999999999997780, -3.673940397442069729E-16 ) ) ;
#104 = CIRCLE ( 'NONE', #177, 2.999999999999990674 ) ;
#105 = DIRECTION ( 'NONE',  ( 0.000000000000000000, 1.000000000000000000, 0.000000000000000000 ) ) ;
#106 = ADVANCED_FACE ( 'NONE', ( #191 ), #190, .T. ) ;
#107 = PRODUCT_RELATED_PRODUCT_CATEGORY ( 'detail', '', ( #199 ) ) ;
#108 = CARTESIAN_POINT ( 'NONE',  ( 5.237222008264700033E-14, 2.249639673992779022E-32, 15.00000000000000000 ) ) ;
#109 = LOCAL_TIME ( 9, 9, 4.000000000000000000, #22 ) ;
#110 = MANIFOLD_SOLID_BREP ( 'Corps-Déplacer/Copier1[2]', #12 ) ;
#111 = CARTESIAN_POINT ( 'NONE',  ( 2.444036937190193601E-13, -8.572527594031472993E-15, 70.00000000000000000 ) ) ;
#112 = ORIENTED_EDGE ( 'NONE', *, *, #133, .T. ) ;
#113 = MANIFOLD_SOLID_BREP ( 'Corps-Déplacer/Copier1[1]', #181 ) ;
#114 = VERTEX_POINT ( 'NONE', #220 ) ;
#115 = DATE_AND_TIME ( #186, #251 ) ;
#116 = CIRCLE ( 'NONE', #300, 2.999999999999993339 ) ;
#117 = LINE ( 'NONE', #216, #182 ) ;
#118 = COORDINATED_UNIVERSAL_TIME_OFFSET ( 1, 0, .AHEAD. ) ;
#119 = FACE_OUTER_BOUND ( 'NONE', #187, .T. ) ;
#120 = CARTESIAN_POINT ( 'NONE',  ( 2.446976089508147649E-13, -2.400000000000011458, 70.00000000000000000 ) ) ;
#121 = EDGE_CURVE ( 'NONE', #201, #84, #293, .T. ) ;
#122 = CYLINDRICAL_SURFACE ( 'NONE', #291, 2.999999999999997780 ) ;
#123 = CALENDAR_DATE ( 2023, 31, 3 ) ;
#124 = CARTESIAN_POINT ( 'NONE',  ( 2.444036937190193601E-13, -8.572527594031472993E-15, 70.00000000000000000 ) ) ;
#125 = CONICAL_SURFACE ( 'NONE', #267, 2.400000000000003020, 0.7853981633974453924 ) ;
#126 = APPROVAL_ROLE ( '' ) ;
#127 = VERTEX_POINT ( 'NONE', #296 ) ;
#128 = DIRECTION ( 'NONE',  ( 3.491481338843133355E-15, -1.224646799147353207E-16, 1.000000000000000000 ) ) ;
#129 = PLANE ( 'NONE',  #208 ) ;
#130 = AXIS2_PLACEMENT_3D ( 'NONE', #168, #269, #287 ) ;
#131 = ORIENTED_EDGE ( 'NONE', *, *, #42, .T. ) ;
#132 = EDGE_CURVE ( 'NONE', #264, #236, #60, .T. ) ;
#133 = EDGE_CURVE ( 'NONE', #127, #164, #203, .T. ) ;
#134 = EDGE_LOOP ( 'NONE', ( #185, #14, #77, #25 ) ) ;
#135 = EDGE_LOOP ( 'NONE', ( #112, #214, #237, #184 ) ) ;
#136 = CC_DESIGN_PERSON_AND_ORGANIZATION_ASSIGNMENT ( #86, #141, ( #232 ) ) ;
#137 = ADVANCED_FACE ( 'NONE', ( #149 ), #53, .T. ) ;
#138 =( NAMED_UNIT ( * ) PLANE_ANGLE_UNIT ( ) SI_UNIT ( $, .RADIAN. ) );
#139 = ORIENTED_EDGE ( 'NONE', *, *, #121, .F. ) ;
#140 = EDGE_CURVE ( 'NONE', #54, #114, #104, .T. ) ;
#141 = PERSON_AND_ORGANIZATION_ROLE ( 'classification_officer' ) ;
#142 = DIRECTION ( 'NONE',  ( -3.491481338843133355E-15, 1.224646799147353207E-16, -1.000000000000000000 ) ) ;
#143 = SHAPE_DEFINITION_REPRESENTATION ( #150, #279 ) ;
#144 = DIRECTION ( 'NONE',  ( 0.000000000000000000, 1.000000000000000000, 0.000000000000000000 ) ) ;
#145 = AXIS2_PLACEMENT_3D ( 'NONE', #68, #44, #144 ) ;
#146 = CARTESIAN_POINT ( 'NONE',  ( -8.551594410109907837E-31, 2.999495545182410611E-32, -2.449273984360859108E-16 ) ) ;
#147 = DIRECTION ( 'NONE',  ( -3.491481338843133355E-15, 1.224646799147353207E-16, -1.000000000000000000 ) ) ;
#148 = AXIS2_PLACEMENT_3D ( 'NONE', #278, #151, #31 ) ;
#149 = FACE_OUTER_BOUND ( 'NONE', #134, .T. ) ;
#150 = PRODUCT_DEFINITION_SHAPE ( 'NONE', 'NONE',  #13 ) ;
#151 = DIRECTION ( 'NONE',  ( -3.491481338843133355E-15, 1.224646799147353207E-16, -1.000000000000000000 ) ) ;
#152 = CC_DESIGN_PERSON_AND_ORGANIZATION_ASSIGNMENT ( #51, #250, ( #82 ) ) ;
#153 = EDGE_LOOP ( 'NONE', ( #58, #131 ) ) ;
#154 = CARTESIAN_POINT ( 'NONE',  ( 5.237222008264700033E-14, -1.836970198721029589E-15, 15.00000000000000000 ) ) ;
#155 = EDGE_CURVE ( 'NONE', #236, #201, #253, .T. ) ;
#156 = CC_DESIGN_APPROVAL ( #218, ( #13 ) ) ;
#157 = APPLICATION_PROTOCOL_DEFINITION ( 'international standard', 'config_control_design', 1994, #57 ) ;
#158 = DIRECTION ( 'NONE',  ( -3.491481338843133355E-15, 1.224646799147353207E-16, -1.000000000000000000 ) ) ;
#159 = DIRECTION ( 'NONE',  ( -3.491481338843133355E-15, 1.224646799147353207E-16, -1.000000000000000000 ) ) ;
#160 = EDGE_LOOP ( 'NONE', ( #284, #176, #88, #139 ) ) ;
#161 =( GEOMETRIC_REPRESENTATION_CONTEXT ( 3 ) GLOBAL_UNCERTAINTY_ASSIGNED_CONTEXT ( ( #306 ) ) GLOBAL_UNIT_ASSIGNED_CONTEXT ( ( #209, #138, #254 ) ) REPRESENTATION_CONTEXT ( 'NONE', 'WORKASPACE' ) );
#162 = DIRECTION ( 'NONE',  ( -3.491481338843133355E-15, 1.224646799147353207E-16, -1.000000000000000000 ) ) ;
#163 = DATE_AND_TIME ( #123, #268 ) ;
#164 = VERTEX_POINT ( 'NONE', #48 ) ;
#165 = EDGE_CURVE ( 'NONE', #114, #54, #192, .T. ) ;
#166 = CARTESIAN_POINT ( 'NONE',  ( 5.237222008264700033E-14, -1.836970198721029589E-15, 15.00000000000000000 ) ) ;
#167 = AXIS2_PLACEMENT_3D ( 'NONE', #230, #101, #178 ) ;
#168 = CARTESIAN_POINT ( 'NONE',  ( 0.000000000000000000, 0.000000000000000000, 0.000000000000000000 ) ) ;
#169 = APPROVAL_STATUS ( 'not_yet_approved' ) ;
#170 = AXIS2_PLACEMENT_3D ( 'NONE', #194, #66, #65 ) ;
#171 = AXIS2_PLACEMENT_3D ( 'NONE', #198, #261, #258 ) ;
#172 = PERSON_AND_ORGANIZATION ( #90, #305 ) ;
#173 = DIRECTION ( 'NONE',  ( -3.491481338843133355E-15, 1.224646799147353207E-16, -1.000000000000000000 ) ) ;
#174 = PERSON_AND_ORGANIZATION ( #90, #305 ) ;
#175 = CARTESIAN_POINT ( 'NONE',  ( -1.710318882021981567E-30, 5.998991090364821221E-32, -4.898547968721718215E-16 ) ) ;
#176 = ORIENTED_EDGE ( 'NONE', *, *, #193, .T. ) ;
#177 = AXIS2_PLACEMENT_3D ( 'NONE', #175, #55, #79 ) ;
#178 = DIRECTION ( 'NONE',  ( 4.275831445896958607E-31, 1.000000000000000000, 1.224646799147353207E-16 ) ) ;
#179 = ORIENTED_EDGE ( 'NONE', *, *, #226, .F. ) ;
#180 = FACE_OUTER_BOUND ( 'NONE', #285, .T. ) ;
#181 = CLOSED_SHELL ( 'NONE', ( #10, #26, #219, #34, #15, #71 ) ) ;
#182 = VECTOR ( 'NONE', #147, 1000.000000000000000 ) ;
#183 = EDGE_LOOP ( 'NONE', ( #202, #29, #81, #249 ) ) ;
#184 = ORIENTED_EDGE ( 'NONE', *, *, #24, .F. ) ;
#185 = ORIENTED_EDGE ( 'NONE', *, *, #94, .F. ) ;
#186 = CALENDAR_DATE ( 2023, 31, 3 ) ;
#187 = EDGE_LOOP ( 'NONE', ( #210, #233, #259, #303 ) ) ;
#188 = APPLICATION_PROTOCOL_DEFINITION ( 'international standard', 'config_control_design', 1994, #298 ) ;
#189 = FACE_OUTER_BOUND ( 'NONE', #283, .T. ) ;
#190 = CYLINDRICAL_SURFACE ( 'NONE', #130, 2.999999999999992006 ) ;
#191 = FACE_OUTER_BOUND ( 'NONE', #135, .T. ) ;
#192 = CIRCLE ( 'NONE', #167, 2.999999999999990674 ) ;
#193 = EDGE_CURVE ( 'NONE', #211, #85, #72, .T. ) ;
#194 = CARTESIAN_POINT ( 'NONE',  ( 0.000000000000000000, 0.000000000000000000, 0.000000000000000000 ) ) ;
#195 = MECHANICAL_CONTEXT ( 'NONE', #57, 'mechanical' ) ;
#196 = CARTESIAN_POINT ( 'NONE',  ( 0.000000000000000000, 0.000000000000000000, 0.000000000000000000 ) ) ;
#197 = DIRECTION ( 'NONE',  ( 0.000000000000000000, 0.000000000000000000, 1.000000000000000000 ) ) ;
#198 = CARTESIAN_POINT ( 'NONE',  ( 2.423088049157134675E-13, -8.499048786082631273E-15, 69.40000000000000568 ) ) ;
#199 = PRODUCT ( '372744', '372744', '', ( #195 ) ) ;
#200 = CARTESIAN_POINT ( 'NONE',  ( 1.282749433769086706E-30, 2.999999999999997780, 3.673940397442057403E-16 ) ) ;
#201 = VERTEX_POINT ( 'NONE', #274 ) ;
#202 = ORIENTED_EDGE ( 'NONE', *, *, #102, .F. ) ;
#203 = CIRCLE ( 'NONE', #244, 2.999999999999993339 ) ;
#204 = CARTESIAN_POINT ( 'NONE',  ( 2.444036937190193601E-13, 2.399999999999994138, 70.00000000000000000 ) ) ;
#205 = ORIENTED_EDGE ( 'NONE', *, *, #132, .F. ) ;
#206 = CC_DESIGN_PERSON_AND_ORGANIZATION_ASSIGNMENT ( #172, #215, ( #13 ) ) ;
#207 = DIRECTION ( 'NONE',  ( 3.491481338843133355E-15, -1.224646799147353207E-16, 1.000000000000000000 ) ) ;
#208 = AXIS2_PLACEMENT_3D ( 'NONE', #76, #128, #248 ) ;
#209 =( LENGTH_UNIT ( ) NAMED_UNIT ( * ) SI_UNIT ( .MILLI., .METRE. ) );
#210 = ORIENTED_EDGE ( 'NONE', *, *, #193, .F. ) ;
#211 = VERTEX_POINT ( 'NONE', #50 ) ;
#212 = EDGE_CURVE ( 'NONE', #201, #211, #301, .T. ) ;
#213 = APPROVAL ( #16, 'UNSPECIFIED' ) ;
#214 = ORIENTED_EDGE ( 'NONE', *, *, #94, .T. ) ;
#215 = PERSON_AND_ORGANIZATION_ROLE ( 'creator' ) ;
#216 = CARTESIAN_POINT ( 'NONE',  ( 3.673940397442037188E-16, -2.999999999999992006, -3.673940397442061840E-16 ) ) ;
#217 = CARTESIAN_POINT ( 'NONE',  ( 5.237222008264700033E-14, -1.836970198721029589E-15, 15.00000000000000000 ) ) ;
#218 = APPROVAL ( #290, 'UNSPECIFIED' ) ;
#219 = ADVANCED_FACE ( 'NONE', ( #294 ), #129, .F. ) ;
#220 = CARTESIAN_POINT ( 'NONE',  ( 2.655350408106768983E-14, -2.999999999999990674, -8.572488366164692669E-16 ) ) ;
#221 = CIRCLE ( 'NONE', #145, 2.999999999999993339 ) ;
#222 = COORDINATED_UNIVERSAL_TIME_OFFSET ( 1, 0, .AHEAD. ) ;
#223 = APPROVAL_ROLE ( '' ) ;
#224 = CARTESIAN_POINT ( 'NONE',  ( 2.444036937190193601E-13, -8.572527594031472993E-15, 70.00000000000000000 ) ) ;
#225 = DIRECTION ( 'NONE',  ( 1.000000000000000000, 0.000000000000000000, 0.000000000000000000 ) ) ;
#226 = EDGE_CURVE ( 'NONE', #236, #264, #28, .T. ) ;
#227 = CARTESIAN_POINT ( 'NONE',  ( 2.444036937190193601E-13, 2.399999999999994138, 70.00000000000000000 ) ) ;
#228 = CC_DESIGN_APPROVAL ( #213, ( #232 ) ) ;
#229 = SECURITY_CLASSIFICATION_LEVEL ( 'unclassified' ) ;
#230 = CARTESIAN_POINT ( 'NONE',  ( -1.710318882021981567E-30, 5.998991090364821221E-32, -4.898547968721718215E-16 ) ) ;
#231 = AXIS2_PLACEMENT_3D ( 'NONE', #108, #207, #299 ) ;
#232 = SECURITY_CLASSIFICATION ( '', '', #229 ) ;
#233 = ORIENTED_EDGE ( 'NONE', *, *, #240, .T. ) ;
#234 = FACE_OUTER_BOUND ( 'NONE', #277, .T. ) ;
#235 = APPROVAL_PERSON_ORGANIZATION ( #263, #213, #223 ) ;
#236 = VERTEX_POINT ( 'NONE', #227 ) ;
#237 = ORIENTED_EDGE ( 'NONE', *, *, #140, .F. ) ;
#238 = DESIGN_CONTEXT ( 'detailed design', #298, 'design' ) ;
#239 = DIRECTION ( 'NONE',  ( -3.491481338843133355E-15, 1.224646799147353207E-16, -1.000000000000000000 ) ) ;
#240 = EDGE_CURVE ( 'NONE', #211, #201, #292, .T. ) ;
#241 = LINE ( 'NONE', #120, #21 ) ;
#242 = DIRECTION ( 'NONE',  ( -3.491481338843133355E-15, 1.224646799147353207E-16, -1.000000000000000000 ) ) ;
#243 = DIRECTION ( 'NONE',  ( 3.491481338843133355E-15, -1.224646799147353207E-16, 1.000000000000000000 ) ) ;
#244 = AXIS2_PLACEMENT_3D ( 'NONE', #154, #100, #4 ) ;
#245 = APPROVAL_DATE_TIME ( #275, #6 ) ;
#246 = DIRECTION ( 'NONE',  ( -3.491481338843133355E-15, 1.224646799147353207E-16, -1.000000000000000000 ) ) ;
#247 = DATE_TIME_ROLE ( 'creation_date' ) ;
#248 = DIRECTION ( 'NONE',  ( -4.275831445896958607E-31, -1.000000000000000000, -1.224646799147353207E-16 ) ) ;
#249 = ORIENTED_EDGE ( 'NONE', *, *, #240, .F. ) ;
#250 = PERSON_AND_ORGANIZATION_ROLE ( 'creator' ) ;
#251 = LOCAL_TIME ( 9, 9, 4.000000000000000000, #118 ) ;
#252 = ORIENTED_EDGE ( 'NONE', *, *, #212, .F. ) ;
#253 = LINE ( 'NONE', #204, #93 ) ;
#254 =( NAMED_UNIT ( * ) SI_UNIT ( $, .STERADIAN. ) SOLID_ANGLE_UNIT ( ) );
#255 = CIRCLE ( 'NONE', #99, 2.999999999999993339 ) ;
#256 = FACE_OUTER_BOUND ( 'NONE', #183, .T. ) ;
#257 = CYLINDRICAL_SURFACE ( 'NONE', #170, 2.999999999999997780 ) ;
#258 = DIRECTION ( 'NONE',  ( 0.000000000000000000, 1.000000000000000000, 0.000000000000000000 ) ) ;
#259 = ORIENTED_EDGE ( 'NONE', *, *, #121, .T. ) ;
#260 = APPROVAL_PERSON_ORGANIZATION ( #174, #6, #286 ) ;
#261 = DIRECTION ( 'NONE',  ( -3.491481338843133355E-15, 1.224646799147353207E-16, -1.000000000000000000 ) ) ;
#262 = ORIENTED_EDGE ( 'NONE', *, *, #226, .T. ) ;
#263 = PERSON_AND_ORGANIZATION ( #90, #305 ) ;
#264 = VERTEX_POINT ( 'NONE', #35 ) ;
#265 = PERSON_AND_ORGANIZATION ( #90, #305 ) ;
#266 = DIRECTION ( 'NONE',  ( -4.275831445896958607E-31, -1.000000000000000000, -1.224646799147353207E-16 ) ) ;
#267 = AXIS2_PLACEMENT_3D ( 'NONE', #280, #158, #59 ) ;
#268 = LOCAL_TIME ( 9, 9, 4.000000000000000000, #62 ) ;
#269 = DIRECTION ( 'NONE',  ( -3.491481338843133355E-15, 1.224646799147353207E-16, -1.000000000000000000 ) ) ;
#270 = CARTESIAN_POINT ( 'NONE',  ( 2.444036937190193601E-13, 1.799711739194218455E-32, 70.00000000000000000 ) ) ;
#271 = CALENDAR_DATE ( 2023, 31, 3 ) ;
#272 = VECTOR ( 'NONE', #159, 1000.000000000000000 ) ;
#273 = PERSON_AND_ORGANIZATION_ROLE ( 'design_supplier' ) ;
#274 = CARTESIAN_POINT ( 'NONE',  ( 2.423088049157134675E-13, 2.999999999999993783, 69.40000000000000568 ) ) ;
#275 = DATE_AND_TIME ( #271, #109 ) ;
#276 = DIRECTION ( 'NONE',  ( -3.491481338843133355E-15, 1.224646799147353207E-16, -1.000000000000000000 ) ) ;
#277 = EDGE_LOOP ( 'NONE', ( #304, #297 ) ) ;
#278 = CARTESIAN_POINT ( 'NONE',  ( 2.423088049157134675E-13, -8.499048786082631273E-15, 69.40000000000000568 ) ) ;
#279 = ADVANCED_BREP_SHAPE_REPRESENTATION ( '372744', ( #113, #110, #37 ), #161 ) ;
#280 = CARTESIAN_POINT ( 'NONE',  ( 2.444036937190193601E-13, -8.572527594031472993E-15, 70.00000000000000000 ) ) ;
#281 = CARTESIAN_POINT ( 'NONE',  ( 0.000000000000000000, 0.000000000000000000, 0.000000000000000000 ) ) ;
#282 = LINE ( 'NONE', #56, #272 ) ;
#283 = EDGE_LOOP ( 'NONE', ( #179, #205 ) ) ;
#284 = ORIENTED_EDGE ( 'NONE', *, *, #212, .T. ) ;
#285 = EDGE_LOOP ( 'NONE', ( #262, #80, #252, #52 ) ) ;
#286 = APPROVAL_ROLE ( '' ) ;
#287 = DIRECTION ( 'NONE',  ( 4.275831445896958607E-31, 1.000000000000000000, 1.224646799147353207E-16 ) ) ;
#288 = CC_DESIGN_SECURITY_CLASSIFICATION ( #232, ( #82 ) ) ;
#289 = CARTESIAN_POINT ( 'NONE',  ( 1.477079065389243447E-13, -2.999999999999994671, 15.00000000000000000 ) ) ;
#290 = APPROVAL_STATUS ( 'not_yet_approved' ) ;
#291 = AXIS2_PLACEMENT_3D ( 'NONE', #41, #70, #309 ) ;
#292 = CIRCLE ( 'NONE', #171, 3.000000000000002665 ) ;
#293 = LINE ( 'NONE', #200, #32 ) ;
#294 = FACE_OUTER_BOUND ( 'NONE', #153, .T. ) ;
#295 = LOCAL_TIME ( 9, 9, 4.000000000000000000, #97 ) ;
#296 = CARTESIAN_POINT ( 'NONE',  ( 5.237222008264700033E-14, 2.999999999999991562, 15.00000000000000000 ) ) ;
#297 = ORIENTED_EDGE ( 'NONE', *, *, #91, .F. ) ;
#298 = APPLICATION_CONTEXT ( 'configuration controlled 3d designs of mechanical parts and assemblies' ) ;
#299 = DIRECTION ( 'NONE',  ( -4.275831445896958607E-31, -1.000000000000000000, -1.224646799147353207E-16 ) ) ;
#300 = AXIS2_PLACEMENT_3D ( 'NONE', #217, #242, #19 ) ;
#301 = CIRCLE ( 'NONE', #148, 3.000000000000002665 ) ;
#302 = FACE_OUTER_BOUND ( 'NONE', #160, .T. ) ;
#303 = ORIENTED_EDGE ( 'NONE', *, *, #42, .F. ) ;
#304 = ORIENTED_EDGE ( 'NONE', *, *, #133, .F. ) ;
#305 = ORGANIZATION ( 'UNSPECIFIED', 'UNSPECIFIED', '' ) ;
#306 = UNCERTAINTY_MEASURE_WITH_UNIT (LENGTH_MEASURE( 1.000000000000000082E-05 ), #209, 'distance_accuracy_value', 'NONE');
#307 = CALENDAR_DATE ( 2023, 31, 3 ) ;
#308 = DIRECTION ( 'NONE',  ( -2.382254525458723780E-15, -0.7071067811865453523, -0.7071067811865496822 ) ) ;
#309 = DIRECTION ( 'NONE',  ( 4.275831445896958607E-31, 1.000000000000000000, 1.224646799147353454E-16 ) ) ;
#310 = AXIS2_PLACEMENT_3D ( 'NONE', #224, #75, #30 ) ;
#311 = CC_DESIGN_DATE_AND_TIME_ASSIGNMENT ( #163, #43, ( #232 ) ) ;
#312 = CARTESIAN_POINT ( 'NONE',  ( -4.275694482528980143E-31, 2.999999999999990674, -1.224607571279670427E-16 ) ) ;
#313 = APPROVAL_DATE_TIME ( #115, #218 ) ;
ENDSEC;
END-ISO-10303-21;
