ISO-10303-21;
HEADER;
FILE_DESCRIPTION (( 'STEP AP203' ),
    '1' );
FILE_NAME ('372743.step',
    '2023-03-31T07:09:03',
    ( '' ),
    ( '' ),
    'SwSTEP 2.0',
    'SolidWorks 2022',
    '' );
FILE_SCHEMA (( 'CONFIG_CONTROL_DESIGN' ));
ENDSEC;

DATA;
#1 = ORIENTED_EDGE ( 'NONE', *, *, #118, .F. ) ;
#2 = APPROVAL_PERSON_ORGANIZATION ( #272, #39, #71 ) ;
#3 = LINE ( 'NONE', #98, #270 ) ;
#4 = PERSON_AND_ORGANIZATION ( #313, #56 ) ;
#5 = ORIENTED_EDGE ( 'NONE', *, *, #192, .F. ) ;
#6 = AXIS2_PLACEMENT_3D ( 'NONE', #187, #85, #304 ) ;
#7 = CC_DESIGN_PERSON_AND_ORGANIZATION_ASSIGNMENT ( #16, #83, ( #301 ) ) ;
#8 = EDGE_LOOP ( 'NONE', ( #242, #75, #271, #221 ) ) ;
#9 = CARTESIAN_POINT ( 'NONE',  ( 1.745740669421566678E-13, -6.123233995736766085E-15, 50.00000000000000000 ) ) ;
#10 = PERSON_AND_ORGANIZATION_ROLE ( 'creator' ) ;
#11 = DIRECTION ( 'NONE',  ( 0.000000000000000000, 1.000000000000000000, 0.000000000000000000 ) ) ;
#12 = EDGE_CURVE ( 'NONE', #45, #176, #245, .T. ) ;
#13 = FACE_OUTER_BOUND ( 'NONE', #276, .T. ) ;
#14 = VECTOR ( 'NONE', #122, 1000.000000000000000 ) ;
#15 = PRODUCT_DEFINITION ( 'UNKNOWN', '', #240, #212 ) ;
#16 = PERSON_AND_ORGANIZATION ( #313, #56 ) ;
#17 = CARTESIAN_POINT ( 'NONE',  ( 1.724791781388508004E-13, 2.999999999999990674, 49.39999999999999858 ) ) ;
#18 = EDGE_CURVE ( 'NONE', #295, #176, #252, .T. ) ;
#19 = FACE_OUTER_BOUND ( 'NONE', #55, .T. ) ;
#20 = EDGE_CURVE ( 'NONE', #49, #45, #3, .T. ) ;
#21 = APPLICATION_CONTEXT ( 'configuration controlled 3d designs of mechanical parts and assemblies' ) ;
#22 = CARTESIAN_POINT ( 'NONE',  ( 1.745740669421566678E-13, 2.399999999999990585, 50.00000000000000000 ) ) ;
#23 = DIRECTION ( 'NONE',  ( 0.000000000000000000, 1.000000000000000000, 0.000000000000000000 ) ) ;
#24 = AXIS2_PLACEMENT_3D ( 'NONE', #184, #281, #299 ) ;
#25 = PERSON_AND_ORGANIZATION_ROLE ( 'creator' ) ;
#26 = EDGE_CURVE ( 'NONE', #295, #49, #147, .T. ) ;
#27 = ORIENTED_EDGE ( 'NONE', *, *, #192, .T. ) ;
#28 = EDGE_CURVE ( 'NONE', #176, #45, #38, .T. ) ;
#29 = AXIS2_PLACEMENT_3D ( 'NONE', #113, #116, #146 ) ;
#30 = CARTESIAN_POINT ( 'NONE',  ( 3.673940397442039653E-16, -2.999999999999993783, -3.673940397442064798E-16 ) ) ;
#31 = ORIENTED_EDGE ( 'NONE', *, *, #20, .F. ) ;
#32 = CIRCLE ( 'NONE', #169, 2.999999999999992006 ) ;
#33 = CALENDAR_DATE ( 2023, 31, 3 ) ;
#34 = ORIENTED_EDGE ( 'NONE', *, *, #135, .F. ) ;
#35 = DIRECTION ( 'NONE',  ( 0.000000000000000000, 1.000000000000000000, 0.000000000000000000 ) ) ;
#36 = EDGE_CURVE ( 'NONE', #104, #196, #237, .T. ) ;
#37 = PERSON_AND_ORGANIZATION ( #313, #56 ) ;
#38 = CIRCLE ( 'NONE', #24, 2.999999999999992006 ) ;
#39 = APPROVAL ( #200, 'UNSPECIFIED' ) ;
#40 = SHAPE_DEFINITION_REPRESENTATION ( #67, #277 ) ;
#41 = DIRECTION ( 'NONE',  ( 4.275831445896958607E-31, 1.000000000000000000, 1.224646799147353454E-16 ) ) ;
#42 = ADVANCED_FACE ( 'NONE', ( #231 ), #82, .T. ) ;
#43 = FACE_OUTER_BOUND ( 'NONE', #214, .T. ) ;
#44 = CARTESIAN_POINT ( 'NONE',  ( 0.000000000000000000, 0.000000000000000000, 0.000000000000000000 ) ) ;
#45 = VERTEX_POINT ( 'NONE', #87 ) ;
#46 = ORIENTED_EDGE ( 'NONE', *, *, #18, .T. ) ;
#47 = CALENDAR_DATE ( 2023, 31, 3 ) ;
#48 = ORIENTED_EDGE ( 'NONE', *, *, #135, .T. ) ;
#49 = VERTEX_POINT ( 'NONE', #17 ) ;
#50 = CIRCLE ( 'NONE', #288, 2.999999999999990674 ) ;
#51 = LOCAL_TIME ( 9, 9, 3.000000000000000000, #305 ) ;
#52 = DATE_AND_TIME ( #47, #164 ) ;
#53 = ORIENTED_EDGE ( 'NONE', *, *, #222, .F. ) ;
#54 = DIRECTION ( 'NONE',  ( 1.000000000000000000, 0.000000000000000000, 0.000000000000000000 ) ) ;
#55 = EDGE_LOOP ( 'NONE', ( #226, #48, #79, #72 ) ) ;
#56 = ORGANIZATION ( 'UNSPECIFIED', 'UNSPECIFIED', '' ) ;
#57 = CARTESIAN_POINT ( 'NONE',  ( -1.710324741423462991E-30, 5.999011642378630015E-32, -4.898564750714553954E-16 ) ) ;
#58 = APPLICATION_CONTEXT ( 'configuration controlled 3d designs of mechanical parts and assemblies' ) ;
#59 = DIRECTION ( 'NONE',  ( -3.491481338843133355E-15, 1.224646799147353207E-16, -1.000000000000000000 ) ) ;
#60 = CARTESIAN_POINT ( 'NONE',  ( 0.000000000000000000, 0.000000000000000000, 0.000000000000000000 ) ) ;
#61 = CC_DESIGN_DATE_AND_TIME_ASSIGNMENT ( #280, #230, ( #301 ) ) ;
#62 = DIRECTION ( 'NONE',  ( 4.275831445896958607E-31, 1.000000000000000000, 1.224646799147353207E-16 ) ) ;
#63 = CARTESIAN_POINT ( 'NONE',  ( -4.275753076543795256E-31, 2.999999999999990674, -1.224624353272505919E-16 ) ) ;
#64 = VERTEX_POINT ( 'NONE', #201 ) ;
#65 = CARTESIAN_POINT ( 'NONE',  ( 1.738572771762734887E-13, -2.400000000000003020, 50.00000000000000000 ) ) ;
#66 = PLANE ( 'NONE',  #261 ) ;
#67 = PRODUCT_DEFINITION_SHAPE ( 'NONE', 'NONE',  #15 ) ;
#68 = CARTESIAN_POINT ( 'NONE',  ( 0.000000000000000000, 0.000000000000000000, 0.000000000000000000 ) ) ;
#69 = AXIS2_PLACEMENT_3D ( 'NONE', #257, #186, #35 ) ;
#70 = ADVANCED_FACE ( 'NONE', ( #206 ), #111, .T. ) ;
#71 = APPROVAL_ROLE ( '' ) ;
#72 = ORIENTED_EDGE ( 'NONE', *, *, #73, .F. ) ;
#73 = EDGE_CURVE ( 'NONE', #64, #196, #96, .T. ) ;
#74 =( LENGTH_UNIT ( ) NAMED_UNIT ( * ) SI_UNIT ( .MILLI., .METRE. ) );
#75 = ORIENTED_EDGE ( 'NONE', *, *, #26, .T. ) ;
#76 = MECHANICAL_CONTEXT ( 'NONE', #21, 'mechanical' ) ;
#77 = EDGE_LOOP ( 'NONE', ( #5, #273, #243, #175 ) ) ;
#78 = CC_DESIGN_APPROVAL ( #151, ( #240 ) ) ;
#79 = ORIENTED_EDGE ( 'NONE', *, *, #36, .T. ) ;
#80 = ORIENTED_EDGE ( 'NONE', *, *, #36, .F. ) ;
#81 = DIRECTION ( 'NONE',  ( -3.491481338843133355E-15, 1.224646799147353207E-16, -1.000000000000000000 ) ) ;
#82 = CONICAL_SURFACE ( 'NONE', #307, 2.399999999999996803, 0.7853981633974453924 ) ;
#83 = PERSON_AND_ORGANIZATION_ROLE ( 'classification_officer' ) ;
#84 = EDGE_CURVE ( 'NONE', #195, #64, #165, .T. ) ;
#85 = DIRECTION ( 'NONE',  ( -3.491481338843133355E-15, 1.224646799147353207E-16, -1.000000000000000000 ) ) ;
#86 = PERSON_AND_ORGANIZATION_ROLE ( 'design_supplier' ) ;
#87 = CARTESIAN_POINT ( 'NONE',  ( 4.189777606611760026E-14, 2.999999999999990674, 12.00000000000000000 ) ) ;
#88 = CIRCLE ( 'NONE', #300, 2.399999999999996803 ) ;
#89 = CARTESIAN_POINT ( 'NONE',  ( 3.673940397442036695E-16, -2.999999999999991562, -3.673940397442061840E-16 ) ) ;
#90 = EDGE_CURVE ( 'NONE', #49, #295, #279, .T. ) ;
#91 = CARTESIAN_POINT ( 'NONE',  ( 2.131628207280299927E-14, -2.999999999999993339, 12.00000000000000000 ) ) ;
#92 = APPROVAL_PERSON_ORGANIZATION ( #4, #151, #249 ) ;
#93 = DIRECTION ( 'NONE',  ( -3.491481338843133355E-15, 1.224646799147353207E-16, -1.000000000000000000 ) ) ;
#94 = LINE ( 'NONE', #289, #224 ) ;
#95 = ORIENTED_EDGE ( 'NONE', *, *, #12, .T. ) ;
#96 = CIRCLE ( 'NONE', #154, 2.999999999999990674 ) ;
#97 = MANIFOLD_SOLID_BREP ( 'Corps-Déplacer/Copier1[1]', #141 ) ;
#98 = CARTESIAN_POINT ( 'NONE',  ( 1.282749433769084955E-30, 2.999999999999993783, 3.673940397442052472E-16 ) ) ;
#99 = ORIENTED_EDGE ( 'NONE', *, *, #131, .T. ) ;
#100 = EDGE_CURVE ( 'NONE', #196, #64, #50, .T. ) ;
#101 = APPROVAL_STATUS ( 'not_yet_approved' ) ;
#102 = ORIENTED_EDGE ( 'NONE', *, *, #28, .T. ) ;
#103 = PERSON_AND_ORGANIZATION ( #313, #56 ) ;
#104 = VERTEX_POINT ( 'NONE', #181 ) ;
#105 = ADVANCED_FACE ( 'NONE', ( #13 ), #133, .T. ) ;
#106 = APPROVAL_DATE_TIME ( #235, #274 ) ;
#107 = DIRECTION ( 'NONE',  ( 4.275831445896958607E-31, 1.000000000000000000, 1.224646799147353207E-16 ) ) ;
#108 = COORDINATED_UNIVERSAL_TIME_OFFSET ( 1, 0, .AHEAD. ) ;
#109 = DIRECTION ( 'NONE',  ( -3.491481338843133355E-15, 1.224646799147353207E-16, -1.000000000000000000 ) ) ;
#110 = DIRECTION ( 'NONE',  ( -3.491481338843133355E-15, 1.224646799147353207E-16, -1.000000000000000000 ) ) ;
#111 = CYLINDRICAL_SURFACE ( 'NONE', #182, 2.999999999999993783 ) ;
#112 = CONICAL_SURFACE ( 'NONE', #290, 2.399999999999996803, 0.7853981633974453924 ) ;
#113 = CARTESIAN_POINT ( 'NONE',  ( 4.189777606611760026E-14, 2.249639673992777927E-32, 12.00000000000000000 ) ) ;
#114 = ORIENTED_EDGE ( 'NONE', *, *, #222, .T. ) ;
#115 = PRODUCT_RELATED_PRODUCT_CATEGORY ( 'detail', '', ( #121 ) ) ;
#116 = DIRECTION ( 'NONE',  ( 3.491481338843133355E-15, -1.224646799147353207E-16, 1.000000000000000000 ) ) ;
#117 = DIRECTION ( 'NONE',  ( 0.000000000000000000, 1.000000000000000000, 0.000000000000000000 ) ) ;
#118 = EDGE_CURVE ( 'NONE', #225, #179, #88, .T. ) ;
#119 = AXIS2_PLACEMENT_3D ( 'NONE', #287, #312, #23 ) ;
#120 = DIRECTION ( 'NONE',  ( -2.382254525458723780E-15, -0.7071067811865453523, -0.7071067811865496822 ) ) ;
#121 = PRODUCT ( '372743', '372743', '', ( #76 ) ) ;
#122 = DIRECTION ( 'NONE',  ( -3.491481338843133355E-15, 1.224646799147353207E-16, -1.000000000000000000 ) ) ;
#123 = AXIS2_PLACEMENT_3D ( 'NONE', #185, #285, #263 ) ;
#124 = DIRECTION ( 'NONE',  ( -3.491481338843133355E-15, 1.224646799147353207E-16, -1.000000000000000000 ) ) ;
#125 = ORIENTED_EDGE ( 'NONE', *, *, #73, .T. ) ;
#126 = PERSON_AND_ORGANIZATION_ROLE ( 'design_owner' ) ;
#127 = AXIS2_PLACEMENT_3D ( 'NONE', #260, #128, #138 ) ;
#128 = DIRECTION ( 'NONE',  ( -3.491481338843133355E-15, 1.224646799147353207E-16, -1.000000000000000000 ) ) ;
#129 = ADVANCED_FACE ( 'NONE', ( #203 ), #264, .F. ) ;
#130 = SECURITY_CLASSIFICATION_LEVEL ( 'unclassified' ) ;
#131 = EDGE_CURVE ( 'NONE', #104, #195, #32, .T. ) ;
#132 = FACE_OUTER_BOUND ( 'NONE', #159, .T. ) ;
#133 = CYLINDRICAL_SURFACE ( 'NONE', #229, 2.999999999999991562 ) ;
#134 = CC_DESIGN_PERSON_AND_ORGANIZATION_ASSIGNMENT ( #37, #86, ( #240 ) ) ;
#135 = EDGE_CURVE ( 'NONE', #195, #104, #233, .T. ) ;
#136 = APPROVAL_ROLE ( '' ) ;
#137 = CC_DESIGN_SECURITY_CLASSIFICATION ( #301, ( #240 ) ) ;
#138 = DIRECTION ( 'NONE',  ( 4.275831445896958607E-31, 1.000000000000000000, 1.224646799147353207E-16 ) ) ;
#139 = ADVANCED_FACE ( 'NONE', ( #132 ), #232, .F. ) ;
#140 = CARTESIAN_POINT ( 'NONE',  ( 1.075558711422282795E-13, -3.000000000000002665, 49.39999999999999858 ) ) ;
#141 = CLOSED_SHELL ( 'NONE', ( #168, #239, #139, #70, #42, #129 ) ) ;
#142 = FACE_OUTER_BOUND ( 'NONE', #167, .T. ) ;
#143 = CC_DESIGN_APPROVAL ( #39, ( #15 ) ) ;
#144 = ORIENTED_EDGE ( 'NONE', *, *, #84, .T. ) ;
#145 = DIRECTION ( 'NONE',  ( 4.275831445896958607E-31, 1.000000000000000000, 1.224646799147353207E-16 ) ) ;
#146 = DIRECTION ( 'NONE',  ( -4.275831445896958607E-31, -1.000000000000000000, -1.224646799147353207E-16 ) ) ;
#147 = CIRCLE ( 'NONE', #6, 2.999999999999996447 ) ;
#148 = ORIENTED_EDGE ( 'NONE', *, *, #100, .F. ) ;
#149 = CARTESIAN_POINT ( 'NONE',  ( 0.000000000000000000, 0.000000000000000000, 0.000000000000000000 ) ) ;
#150 = DATE_TIME_ROLE ( 'creation_date' ) ;
#151 = APPROVAL ( #101, 'UNSPECIFIED' ) ;
#152 = CARTESIAN_POINT ( 'NONE',  ( 4.189777606611760026E-14, -1.469576158976823947E-15, 12.00000000000000000 ) ) ;
#153 = DIRECTION ( 'NONE',  ( 0.000000000000000000, 1.000000000000000000, 0.000000000000000000 ) ) ;
#154 = AXIS2_PLACEMENT_3D ( 'NONE', #236, #282, #298 ) ;
#155 = LOCAL_TIME ( 9, 9, 3.000000000000000000, #108 ) ;
#156 = APPLICATION_PROTOCOL_DEFINITION ( 'international standard', 'config_control_design', 1994, #21 ) ;
#157 = APPROVAL_STATUS ( 'not_yet_approved' ) ;
#158 = ADVANCED_FACE ( 'NONE', ( #238 ), #213, .F. ) ;
#159 = EDGE_LOOP ( 'NONE', ( #95, #102 ) ) ;
#160 = CALENDAR_DATE ( 2023, 31, 3 ) ;
#161 = CARTESIAN_POINT ( 'NONE',  ( 4.189777606611760026E-14, -1.469576158976823947E-15, 12.00000000000000000 ) ) ;
#162 = DIRECTION ( 'NONE',  ( -3.491481338843133355E-15, 1.224646799147353207E-16, -1.000000000000000000 ) ) ;
#163 = DIRECTION ( 'NONE',  ( -3.491481338843133355E-15, 1.224646799147353207E-16, -1.000000000000000000 ) ) ;
#164 = LOCAL_TIME ( 9, 9, 3.000000000000000000, #194 ) ;
#165 = LINE ( 'NONE', #89, #266 ) ;
#166 = CARTESIAN_POINT ( 'NONE',  ( 0.000000000000000000, 0.000000000000000000, 0.000000000000000000 ) ) ;
#167 = EDGE_LOOP ( 'NONE', ( #247, #46, #255, #31 ) ) ;
#168 = ADVANCED_FACE ( 'NONE', ( #193 ), #112, .T. ) ;
#169 = AXIS2_PLACEMENT_3D ( 'NONE', #161, #110, #208 ) ;
#170 = CYLINDRICAL_SURFACE ( 'NONE', #204, 2.999999999999991562 ) ;
#171 = DIRECTION ( 'NONE',  ( 3.491481338843133355E-15, -1.224646799147353207E-16, 1.000000000000000000 ) ) ;
#172 = CALENDAR_DATE ( 2023, 31, 3 ) ;
#173 = ORIENTED_EDGE ( 'NONE', *, *, #209, .F. ) ;
#174 = PERSON_AND_ORGANIZATION ( #313, #56 ) ;
#175 = ORIENTED_EDGE ( 'NONE', *, *, #26, .F. ) ;
#176 = VERTEX_POINT ( 'NONE', #211 ) ;
#177 = VECTOR ( 'NONE', #120, 1000.000000000000000 ) ;
#178 = APPROVAL_PERSON_ORGANIZATION ( #259, #274, #136 ) ;
#179 = VERTEX_POINT ( 'NONE', #22 ) ;
#180 = PERSON_AND_ORGANIZATION ( #313, #56 ) ;
#181 = CARTESIAN_POINT ( 'NONE',  ( 4.189777606611760026E-14, 2.999999999999990674, 12.00000000000000000 ) ) ;
#182 = AXIS2_PLACEMENT_3D ( 'NONE', #60, #306, #303 ) ;
#183 = AXIS2_PLACEMENT_3D ( 'NONE', #68, #93, #41 ) ;
#184 = CARTESIAN_POINT ( 'NONE',  ( 4.189777606611760026E-14, -1.469576158976823947E-15, 12.00000000000000000 ) ) ;
#185 = CARTESIAN_POINT ( 'NONE',  ( 1.724791781388508004E-13, -6.049755187787925154E-15, 49.39999999999999858 ) ) ;
#186 = DIRECTION ( 'NONE',  ( -3.491481338843133355E-15, 1.224646799147353207E-16, -1.000000000000000000 ) ) ;
#187 = CARTESIAN_POINT ( 'NONE',  ( 1.724791781388508004E-13, -6.049755187787925154E-15, 49.39999999999999858 ) ) ;
#188 = DIRECTION ( 'NONE',  ( -3.491481338843133355E-15, 1.224646799147353207E-16, -1.000000000000000000 ) ) ;
#189 = DIRECTION ( 'NONE',  ( 3.491481338843133355E-15, -1.224646799147353207E-16, 1.000000000000000000 ) ) ;
#190 = DIRECTION ( 'NONE',  ( -2.468850131082271655E-15, 0.7071067811865455743, -0.7071067811865493491 ) ) ;
#191 = CIRCLE ( 'NONE', #119, 2.399999999999996803 ) ;
#192 = EDGE_CURVE ( 'NONE', #225, #295, #218, .T. ) ;
#193 = FACE_OUTER_BOUND ( 'NONE', #228, .T. ) ;
#194 = COORDINATED_UNIVERSAL_TIME_OFFSET ( 1, 0, .AHEAD. ) ;
#195 = VERTEX_POINT ( 'NONE', #91 ) ;
#196 = VERTEX_POINT ( 'NONE', #63 ) ;
#197 = EDGE_LOOP ( 'NONE', ( #53, #1 ) ) ;
#198 = ORIENTED_EDGE ( 'NONE', *, *, #90, .F. ) ;
#199 = LOCAL_TIME ( 9, 9, 3.000000000000000000, #254 ) ;
#200 = APPROVAL_STATUS ( 'not_yet_approved' ) ;
#201 = CARTESIAN_POINT ( 'NONE',  ( 2.131628207280299611E-14, -2.999999999999990674, -8.572505148157346970E-16 ) ) ;
#202 = CC_DESIGN_DATE_AND_TIME_ASSIGNMENT ( #52, #150, ( #15 ) ) ;
#203 = FACE_OUTER_BOUND ( 'NONE', #197, .T. ) ;
#204 = AXIS2_PLACEMENT_3D ( 'NONE', #44, #188, #145 ) ;
#205 = APPROVAL_DATE_TIME ( #262, #151 ) ;
#206 = FACE_OUTER_BOUND ( 'NONE', #8, .T. ) ;
#207 = CC_DESIGN_PERSON_AND_ORGANIZATION_ASSIGNMENT ( #174, #126, ( #121 ) ) ;
#208 = DIRECTION ( 'NONE',  ( 0.000000000000000000, 1.000000000000000000, 0.000000000000000000 ) ) ;
#209 = EDGE_CURVE ( 'NONE', #179, #49, #94, .T. ) ;
#210 = DIRECTION ( 'NONE',  ( -3.491481338843133355E-15, 1.224646799147353207E-16, -1.000000000000000000 ) ) ;
#211 = CARTESIAN_POINT ( 'NONE',  ( 1.075558711422283679E-13, -2.999999999999993339, 12.00000000000000000 ) ) ;
#212 = DESIGN_CONTEXT ( 'detailed design', #58, 'design' ) ;
#213 = PLANE ( 'NONE',  #256 ) ;
#214 = EDGE_LOOP ( 'NONE', ( #253, #34 ) ) ;
#215 = CC_DESIGN_PERSON_AND_ORGANIZATION_ASSIGNMENT ( #180, #10, ( #240 ) ) ;
#216 = ADVANCED_FACE ( 'NONE', ( #43 ), #66, .T. ) ;
#217 = CLOSED_SHELL ( 'NONE', ( #105, #158, #302, #216 ) ) ;
#218 = LINE ( 'NONE', #310, #177 ) ;
#219 = AXIS2_PLACEMENT_3D ( 'NONE', #149, #294, #54 ) ;
#220 = COORDINATED_UNIVERSAL_TIME_OFFSET ( 1, 0, .AHEAD. ) ;
#221 = ORIENTED_EDGE ( 'NONE', *, *, #28, .F. ) ;
#222 = EDGE_CURVE ( 'NONE', #179, #225, #191, .T. ) ;
#223 =( NAMED_UNIT ( * ) SI_UNIT ( $, .STERADIAN. ) SOLID_ANGLE_UNIT ( ) );
#224 = VECTOR ( 'NONE', #190, 1000.000000000000114 ) ;
#225 = VERTEX_POINT ( 'NONE', #65 ) ;
#226 = ORIENTED_EDGE ( 'NONE', *, *, #84, .F. ) ;
#227 = APPROVAL_DATE_TIME ( #248, #39 ) ;
#228 = EDGE_LOOP ( 'NONE', ( #114, #27, #198, #173 ) ) ;
#229 = AXIS2_PLACEMENT_3D ( 'NONE', #166, #59, #107 ) ;
#230 = DATE_TIME_ROLE ( 'classification_date' ) ;
#231 = FACE_OUTER_BOUND ( 'NONE', #77, .T. ) ;
#232 = PLANE ( 'NONE',  #29 ) ;
#233 = CIRCLE ( 'NONE', #69, 2.999999999999992006 ) ;
#234 = CC_DESIGN_APPROVAL ( #274, ( #301 ) ) ;
#235 = DATE_AND_TIME ( #33, #199 ) ;
#236 = CARTESIAN_POINT ( 'NONE',  ( -1.710324741423462991E-30, 5.999011642378630015E-32, -4.898564750714553954E-16 ) ) ;
#237 = LINE ( 'NONE', #283, #251 ) ;
#238 = FACE_OUTER_BOUND ( 'NONE', #293, .T. ) ;
#239 = ADVANCED_FACE ( 'NONE', ( #142 ), #246, .T. ) ;
#240 = PRODUCT_DEFINITION_FORMATION_WITH_SPECIFIED_SOURCE ( 'ANY', '', #121, .NOT_KNOWN. ) ;
#241 = DIRECTION ( 'NONE',  ( -3.491481338843133355E-15, 1.224646799147353207E-16, -1.000000000000000000 ) ) ;
#242 = ORIENTED_EDGE ( 'NONE', *, *, #18, .F. ) ;
#243 = ORIENTED_EDGE ( 'NONE', *, *, #209, .T. ) ;
#244 = CARTESIAN_POINT ( 'NONE',  ( 1.745740669421566678E-13, -6.123233995736766085E-15, 50.00000000000000000 ) ) ;
#245 = CIRCLE ( 'NONE', #284, 2.999999999999992006 ) ;
#246 = CYLINDRICAL_SURFACE ( 'NONE', #183, 2.999999999999993783 ) ;
#247 = ORIENTED_EDGE ( 'NONE', *, *, #90, .T. ) ;
#248 = DATE_AND_TIME ( #172, #267 ) ;
#249 = APPROVAL_ROLE ( '' ) ;
#250 = DIRECTION ( 'NONE',  ( -3.491481338843133355E-15, 1.224646799147353207E-16, -1.000000000000000000 ) ) ;
#251 = VECTOR ( 'NONE', #109, 1000.000000000000000 ) ;
#252 = LINE ( 'NONE', #30, #14 ) ;
#253 = ORIENTED_EDGE ( 'NONE', *, *, #131, .F. ) ;
#254 = COORDINATED_UNIVERSAL_TIME_OFFSET ( 1, 0, .AHEAD. ) ;
#255 = ORIENTED_EDGE ( 'NONE', *, *, #12, .F. ) ;
#256 = AXIS2_PLACEMENT_3D ( 'NONE', #265, #189, #309 ) ;
#257 = CARTESIAN_POINT ( 'NONE',  ( 4.189777606611760026E-14, -1.469576158976823947E-15, 12.00000000000000000 ) ) ;
#258 = DIRECTION ( 'NONE',  ( 0.000000000000000000, 1.000000000000000000, 0.000000000000000000 ) ) ;
#259 = PERSON_AND_ORGANIZATION ( #313, #56 ) ;
#260 = CARTESIAN_POINT ( 'NONE',  ( 1.745740669421566678E-13, 1.799711739194217634E-32, 50.00000000000000000 ) ) ;
#261 = AXIS2_PLACEMENT_3D ( 'NONE', #269, #171, #268 ) ;
#262 = DATE_AND_TIME ( #160, #155 ) ;
#263 = DIRECTION ( 'NONE',  ( 0.000000000000000000, 1.000000000000000000, 0.000000000000000000 ) ) ;
#264 = PLANE ( 'NONE',  #127 ) ;
#265 = CARTESIAN_POINT ( 'NONE',  ( -8.551623707117314956E-31, 2.999505821189315008E-32, -2.449282375357276977E-16 ) ) ;
#266 = VECTOR ( 'NONE', #210, 1000.000000000000000 ) ;
#267 = LOCAL_TIME ( 9, 9, 3.000000000000000000, #220 ) ;
#268 = DIRECTION ( 'NONE',  ( -4.275831445896958607E-31, -1.000000000000000000, -1.224646799147353207E-16 ) ) ;
#269 = CARTESIAN_POINT ( 'NONE',  ( 4.189777606611760026E-14, 2.249639673992777927E-32, 12.00000000000000000 ) ) ;
#270 = VECTOR ( 'NONE', #124, 1000.000000000000000 ) ;
#271 = ORIENTED_EDGE ( 'NONE', *, *, #20, .T. ) ;
#272 = PERSON_AND_ORGANIZATION ( #313, #56 ) ;
#273 = ORIENTED_EDGE ( 'NONE', *, *, #118, .T. ) ;
#274 = APPROVAL ( #157, 'UNSPECIFIED' ) ;
#275 = CALENDAR_DATE ( 2023, 31, 3 ) ;
#276 = EDGE_LOOP ( 'NONE', ( #99, #144, #148, #80 ) ) ;
#277 = ADVANCED_BREP_SHAPE_REPRESENTATION ( '372743', ( #97, #308, #219 ), #296 ) ;
#278 = CARTESIAN_POINT ( 'NONE',  ( 1.745740669421566678E-13, -6.123233995736766085E-15, 50.00000000000000000 ) ) ;
#279 = CIRCLE ( 'NONE', #123, 2.999999999999996447 ) ;
#280 = DATE_AND_TIME ( #275, #51 ) ;
#281 = DIRECTION ( 'NONE',  ( -3.491481338843133355E-15, 1.224646799147353207E-16, -1.000000000000000000 ) ) ;
#282 = DIRECTION ( 'NONE',  ( -3.491481338843133355E-15, 1.224646799147353207E-16, -1.000000000000000000 ) ) ;
#283 = CARTESIAN_POINT ( 'NONE',  ( 1.282749433769083904E-30, 2.999999999999991562, 3.673940397442049021E-16 ) ) ;
#284 = AXIS2_PLACEMENT_3D ( 'NONE', #152, #250, #153 ) ;
#285 = DIRECTION ( 'NONE',  ( -3.491481338843133355E-15, 1.224646799147353207E-16, -1.000000000000000000 ) ) ;
#286 = UNCERTAINTY_MEASURE_WITH_UNIT (LENGTH_MEASURE( 1.000000000000000082E-05 ), #74, 'distance_accuracy_value', 'NONE');
#287 = CARTESIAN_POINT ( 'NONE',  ( 1.745740669421566678E-13, -6.123233995736766085E-15, 50.00000000000000000 ) ) ;
#288 = AXIS2_PLACEMENT_3D ( 'NONE', #57, #81, #62 ) ;
#289 = CARTESIAN_POINT ( 'NONE',  ( 1.745740669421566678E-13, 2.399999999999990585, 50.00000000000000000 ) ) ;
#290 = AXIS2_PLACEMENT_3D ( 'NONE', #244, #241, #117 ) ;
#291 = ORIENTED_EDGE ( 'NONE', *, *, #100, .T. ) ;
#292 = APPLICATION_PROTOCOL_DEFINITION ( 'international standard', 'config_control_design', 1994, #58 ) ;
#293 = EDGE_LOOP ( 'NONE', ( #291, #125 ) ) ;
#294 = DIRECTION ( 'NONE',  ( 0.000000000000000000, 0.000000000000000000, 1.000000000000000000 ) ) ;
#295 = VERTEX_POINT ( 'NONE', #140 ) ;
#296 =( GEOMETRIC_REPRESENTATION_CONTEXT ( 3 ) GLOBAL_UNCERTAINTY_ASSIGNED_CONTEXT ( ( #286 ) ) GLOBAL_UNIT_ASSIGNED_CONTEXT ( ( #74, #297, #223 ) ) REPRESENTATION_CONTEXT ( 'NONE', 'WORKASPACE' ) );
#297 =( NAMED_UNIT ( * ) PLANE_ANGLE_UNIT ( ) SI_UNIT ( $, .RADIAN. ) );
#298 = DIRECTION ( 'NONE',  ( 4.275831445896958607E-31, 1.000000000000000000, 1.224646799147353207E-16 ) ) ;
#299 = DIRECTION ( 'NONE',  ( 0.000000000000000000, 1.000000000000000000, 0.000000000000000000 ) ) ;
#300 = AXIS2_PLACEMENT_3D ( 'NONE', #278, #163, #258 ) ;
#301 = SECURITY_CLASSIFICATION ( '', '', #130 ) ;
#302 = ADVANCED_FACE ( 'NONE', ( #19 ), #170, .T. ) ;
#303 = DIRECTION ( 'NONE',  ( 4.275831445896958607E-31, 1.000000000000000000, 1.224646799147353454E-16 ) ) ;
#304 = DIRECTION ( 'NONE',  ( 0.000000000000000000, 1.000000000000000000, 0.000000000000000000 ) ) ;
#305 = COORDINATED_UNIVERSAL_TIME_OFFSET ( 1, 0, .AHEAD. ) ;
#306 = DIRECTION ( 'NONE',  ( -3.491481338843133355E-15, 1.224646799147353207E-16, -1.000000000000000000 ) ) ;
#307 = AXIS2_PLACEMENT_3D ( 'NONE', #9, #162, #11 ) ;
#308 = MANIFOLD_SOLID_BREP ( 'Corps-Déplacer/Copier1[2]', #217 ) ;
#309 = DIRECTION ( 'NONE',  ( -4.275831445896958607E-31, -1.000000000000000000, -1.224646799147353207E-16 ) ) ;
#310 = CARTESIAN_POINT ( 'NONE',  ( 1.748679821739520473E-13, -2.400000000000003020, 50.00000000000000000 ) ) ;
#311 = CC_DESIGN_PERSON_AND_ORGANIZATION_ASSIGNMENT ( #103, #25, ( #15 ) ) ;
#312 = DIRECTION ( 'NONE',  ( -3.491481338843133355E-15, 1.224646799147353207E-16, -1.000000000000000000 ) ) ;
#313 = PERSON ( 'UNSPECIFIED', 'UNSPECIFIED', 'UNSPECIFIED', ('UNSPECIFIED'), ('UNSPECIFIED'), ('UNSPECIFIED') ) ;
ENDSEC;
END-ISO-10303-21;
