ISO-10303-21;
HEADER;
FILE_DESCRIPTION (( 'STEP AP203' ),
    '1' );
FILE_NAME ('372742.step',
    '2023-03-31T07:09:03',
    ( '' ),
    ( '' ),
    'SwSTEP 2.0',
    'SolidWorks 2022',
    '' );
FILE_SCHEMA (( 'CONFIG_CONTROL_DESIGN' ));
ENDSEC;

DATA;
#1 = ORIENTED_EDGE ( 'NONE', *, *, #220, .F. ) ;
#2 = PERSON_AND_ORGANIZATION ( #3, #230 ) ;
#3 = PERSON ( 'UNSPECIFIED', 'UNSPECIFIED', 'UNSPECIFIED', ('UNSPECIFIED'), ('UNSPECIFIED'), ('UNSPECIFIED') ) ;
#4 = VERTEX_POINT ( 'NONE', #69 ) ;
#5 = CARTESIAN_POINT ( 'NONE',  ( 8.728703347107833388E-14, 2.999519565323708647E-32, 25.00000000000000000 ) ) ;
#6 = EDGE_CURVE ( 'NONE', #322, #265, #350, .T. ) ;
#7 = PRODUCT_DEFINITION_SHAPE ( 'NONE', 'NONE',  #162 ) ;
#8 = PLANE ( 'NONE',  #222 ) ;
#9 = ORIENTED_EDGE ( 'NONE', *, *, #97, .T. ) ;
#10 = AXIS2_PLACEMENT_3D ( 'NONE', #90, #170, #202 ) ;
#11 = DIRECTION ( 'NONE',  ( 0.000000000000000000, -1.000000000000000000, 0.000000000000000000 ) ) ;
#12 = APPROVAL_PERSON_ORGANIZATION ( #52, #68, #290 ) ;
#13 = ORIENTED_EDGE ( 'NONE', *, *, #35, .T. ) ;
#14 = DIRECTION ( 'NONE',  ( 4.275831445896958607E-31, 1.000000000000000000, 1.224646799147353207E-16 ) ) ;
#15 =( NAMED_UNIT ( * ) PLANE_ANGLE_UNIT ( ) SI_UNIT ( $, .RADIAN. ) );
#16 = DIRECTION ( 'NONE',  ( 0.000000000000000000, 1.000000000000000000, 0.000000000000000000 ) ) ;
#17 = ADVANCED_FACE ( 'NONE', ( #189 ), #317, .T. ) ;
#18 = VERTEX_POINT ( 'NONE', #303 ) ;
#19 = VECTOR ( 'NONE', #24, 1000.000000000000227 ) ;
#20 = LOCAL_TIME ( 9, 9, 3.000000000000000000, #320 ) ;
#21 = CARTESIAN_POINT ( 'NONE',  ( 4.394967843532603637E-14, 2.499999999999997780, -6.123233995738297659E-16 ) ) ;
#22 = CYLINDRICAL_SURFACE ( 'NONE', #81, 4.000000000000000000 ) ;
#23 = ADVANCED_FACE ( 'NONE', ( #157 ), #22, .T. ) ;
#24 = DIRECTION ( 'NONE',  ( 3.404208188709233524E-15, 0.2588190451025212946, 0.9659258262890682012 ) ) ;
#25 = AXIS2_PLACEMENT_3D ( 'NONE', #138, #77, #359 ) ;
#26 = SECURITY_CLASSIFICATION ( '', '', #174 ) ;
#27 = EDGE_CURVE ( 'NONE', #115, #221, #318, .T. ) ;
#28 = COORDINATED_UNIVERSAL_TIME_OFFSET ( 1, 0, .AHEAD. ) ;
#29 = CARTESIAN_POINT ( 'NONE',  ( 1.533574473216445680E-13, 7.499999999999992895, 43.66025403784433223 ) ) ;
#30 = DIRECTION ( 'NONE',  ( 3.491481338843133355E-15, -1.276467311168695266E-16, 1.000000000000000000 ) ) ;
#31 = AXIS2_PLACEMENT_3D ( 'NONE', #245, #224, #67 ) ;
#32 = DIRECTION ( 'NONE',  ( -3.491481338843133355E-15, 1.224646799147353207E-16, -1.000000000000000000 ) ) ;
#33 = ORIENTED_EDGE ( 'NONE', *, *, #122, .T. ) ;
#34 = PERSON_AND_ORGANIZATION_ROLE ( 'creator' ) ;
#35 = EDGE_CURVE ( 'NONE', #194, #18, #183, .T. ) ;
#36 = CIRCLE ( 'NONE', #352, 2.499999999999997780 ) ;
#37 = AXIS2_PLACEMENT_3D ( 'NONE', #58, #263, #271 ) ;
#38 = ORIENTED_EDGE ( 'NONE', *, *, #94, .F. ) ;
#39 = DIRECTION ( 'NONE',  ( 3.491481338843133355E-15, -1.276467311168695266E-16, 1.000000000000000000 ) ) ;
#40 = DIRECTION ( 'NONE',  ( -4.275831445896958607E-31, -1.000000000000000000, -1.224646799147353207E-16 ) ) ;
#41 = ORIENTED_EDGE ( 'NONE', *, *, #299, .F. ) ;
#42 = AXIS2_PLACEMENT_3D ( 'NONE', #45, #301, #305 ) ;
#43 = APPROVAL_PERSON_ORGANIZATION ( #2, #218, #339 ) ;
#44 = ORIENTED_EDGE ( 'NONE', *, *, #328, .T. ) ;
#45 = CARTESIAN_POINT ( 'NONE',  ( -6.413839710158237013E-31, 0.000000000000000000, -1.836996703606440502E-16 ) ) ;
#46 = ADVANCED_FACE ( 'NONE', ( #217 ), #190, .T. ) ;
#47 = DIRECTION ( 'NONE',  ( 3.491481338843133355E-15, -1.276467311168695266E-16, 1.000000000000000000 ) ) ;
#48 = AXIS2_PLACEMENT_3D ( 'NONE', #120, #66, #116 ) ;
#49 = APPROVAL_STATUS ( 'not_yet_approved' ) ;
#50 = CARTESIAN_POINT ( 'NONE',  ( -1.755574420163015328E-30, -2.499999999999997780, -5.028164981528175955E-16 ) ) ;
#51 = ADVANCED_FACE ( 'NONE', ( #70 ), #192, .T. ) ;
#52 = PERSON_AND_ORGANIZATION ( #3, #230 ) ;
#53 = PLANE ( 'NONE',  #284 ) ;
#54 = LOCAL_TIME ( 9, 9, 3.000000000000000000, #193 ) ;
#55 = DIRECTION ( 'NONE',  ( -3.491481338843133355E-15, 1.224646799147353207E-16, -1.000000000000000000 ) ) ;
#56 = CONICAL_SURFACE ( 'NONE', #126, 3.200000000000003730, 0.7853981633974512766 ) ;
#57 = CARTESIAN_POINT ( 'NONE',  ( 0.000000000000000000, 0.000000000000000000, 0.000000000000000000 ) ) ;
#58 = CARTESIAN_POINT ( 'NONE',  ( 0.000000000000000000, 0.000000000000000000, 0.000000000000000000 ) ) ;
#59 = DIRECTION ( 'NONE',  ( -4.275831445896958607E-31, -1.000000000000000000, -1.224646799147353207E-16 ) ) ;
#60 = ORIENTED_EDGE ( 'NONE', *, *, #27, .F. ) ;
#61 = COORDINATED_UNIVERSAL_TIME_OFFSET ( 1, 0, .AHEAD. ) ;
#62 = ORIENTED_EDGE ( 'NONE', *, *, #123, .F. ) ;
#63 = CONICAL_SURFACE ( 'NONE', #279, 7.499999999999998224, 0.2617993877991501295 ) ;
#64 = LOCAL_TIME ( 9, 9, 3.000000000000000000, #135 ) ;
#65 = CARTESIAN_POINT ( 'NONE',  ( 2.783627874196064465E-13, -3.200000000000013500, 80.00000000000000000 ) ) ;
#66 = DIRECTION ( 'NONE',  ( 3.491481338843133355E-15, -1.276467311168695266E-16, 1.000000000000000000 ) ) ;
#67 = DIRECTION ( 'NONE',  ( 0.000000000000000000, -1.000000000000000000, 0.000000000000000000 ) ) ;
#68 = APPROVAL ( #171, 'UNSPECIFIED' ) ;
#69 = CARTESIAN_POINT ( 'NONE',  ( 1.921688257860670818E-13, -4.000000000000004441, 30.59807621135330535 ) ) ;
#70 = FACE_OUTER_BOUND ( 'NONE', #149, .T. ) ;
#71 = ORIENTED_EDGE ( 'NONE', *, *, #220, .T. ) ;
#72 = DATE_TIME_ROLE ( 'creation_date' ) ;
#73 = DIRECTION ( 'NONE',  ( 0.000000000000000000, 1.000000000000000000, 0.000000000000000000 ) ) ;
#74 = FACE_OUTER_BOUND ( 'NONE', #338, .T. ) ;
#75 = AXIS2_PLACEMENT_3D ( 'NONE', #57, #32, #244 ) ;
#76 = CC_DESIGN_APPROVAL ( #68, ( #184 ) ) ;
#77 = DIRECTION ( 'NONE',  ( -3.491481338843133355E-15, 1.276467311168695266E-16, -1.000000000000000000 ) ) ;
#78 = DATE_AND_TIME ( #343, #54 ) ;
#79 = LINE ( 'NONE', #50, #287 ) ;
#80 = APPLICATION_CONTEXT ( 'configuration controlled 3d designs of mechanical parts and assemblies' ) ;
#81 = AXIS2_PLACEMENT_3D ( 'NONE', #95, #280, #14 ) ;
#82 =( GEOMETRIC_REPRESENTATION_CONTEXT ( 3 ) GLOBAL_UNCERTAINTY_ASSIGNED_CONTEXT ( ( #169 ) ) GLOBAL_UNIT_ASSIGNED_CONTEXT ( ( #154, #15, #179 ) ) REPRESENTATION_CONTEXT ( 'NONE', 'WORKASPACE' ) );
#83 = EDGE_CURVE ( 'NONE', #348, #159, #310, .T. ) ;
#84 = LINE ( 'NONE', #349, #196 ) ;
#85 = APPROVAL_STATUS ( 'not_yet_approved' ) ;
#86 = DIRECTION ( 'NONE',  ( -4.456761796588771413E-31, -1.000000000000000000, -1.276467311168695019E-16 ) ) ;
#87 = ORIENTED_EDGE ( 'NONE', *, *, #123, .T. ) ;
#88 = CARTESIAN_POINT ( 'NONE',  ( 8.728703347107833388E-14, 2.999519565323708647E-32, 25.00000000000000000 ) ) ;
#89 = EDGE_LOOP ( 'NONE', ( #101, #71, #206, #327 ) ) ;
#90 = CARTESIAN_POINT ( 'NONE',  ( 2.765253220363761617E-13, -9.699202649247037618E-15, 79.20000000000000284 ) ) ;
#91 = EDGE_LOOP ( 'NONE', ( #186, #298, #9, #249 ) ) ;
#92 = CARTESIAN_POINT ( 'NONE',  ( 2.765253220363761617E-13, -9.699202649247037618E-15, 79.20000000000000284 ) ) ;
#93 = LINE ( 'NONE', #355, #259 ) ;
#94 = EDGE_CURVE ( 'NONE', #159, #348, #255, .T. ) ;
#95 = CARTESIAN_POINT ( 'NONE',  ( 0.000000000000000000, 0.000000000000000000, 0.000000000000000000 ) ) ;
#96 = DIRECTION ( 'NONE',  ( 0.000000000000000000, 1.000000000000000000, 0.000000000000000000 ) ) ;
#97 = EDGE_CURVE ( 'NONE', #295, #131, #79, .T. ) ;
#98 = CLOSED_SHELL ( 'NONE', ( #51, #180, #124, #147 ) ) ;
#99 = CALENDAR_DATE ( 2023, 31, 3 ) ;
#100 = AXIS2_PLACEMENT_3D ( 'NONE', #155, #278, #16 ) ;
#101 = ORIENTED_EDGE ( 'NONE', *, *, #311, .F. ) ;
#102 = EDGE_CURVE ( 'NONE', #132, #4, #337, .T. ) ;
#103 = ADVANCED_FACE ( 'NONE', ( #198 ), #56, .T. ) ;
#104 = CYLINDRICAL_SURFACE ( 'NONE', #293, 2.499999999999997780 ) ;
#105 = CARTESIAN_POINT ( 'NONE',  ( -6.413839710158237013E-31, 0.000000000000000000, -1.836996703606440502E-16 ) ) ;
#106 = PERSON_AND_ORGANIZATION ( #3, #230 ) ;
#107 = DIRECTION ( 'NONE',  ( 4.275831445896958607E-31, 1.000000000000000000, 1.224646799147353207E-16 ) ) ;
#108 = APPROVAL_DATE_TIME ( #363, #218 ) ;
#109 = PRODUCT ( '372742', '372742', '', ( #256 ) ) ;
#110 = ORIENTED_EDGE ( 'NONE', *, *, #6, .T. ) ;
#111 = PERSON_AND_ORGANIZATION_ROLE ( 'design_supplier' ) ;
#112 = CARTESIAN_POINT ( 'NONE',  ( 2.797103940831777906E-13, -3.200000000000013500, 80.00000000000000000 ) ) ;
#113 = EDGE_LOOP ( 'NONE', ( #62, #335 ) ) ;
#114 = CARTESIAN_POINT ( 'NONE',  ( 2.765253220363761617E-13, 3.999999999999994227, 79.20000000000000284 ) ) ;
#115 = VERTEX_POINT ( 'NONE', #161 ) ;
#116 = DIRECTION ( 'NONE',  ( 0.000000000000000000, -1.000000000000000000, 0.000000000000000000 ) ) ;
#117 = EDGE_LOOP ( 'NONE', ( #121, #346, #243, #1 ) ) ;
#118 = AXIS2_PLACEMENT_3D ( 'NONE', #188, #214, #336 ) ;
#119 = APPROVAL_PERSON_ORGANIZATION ( #306, #142, #160 ) ;
#120 = CARTESIAN_POINT ( 'NONE',  ( 8.728703347107833388E-14, -3.191168277921738509E-15, 25.00000000000000000 ) ) ;
#121 = ORIENTED_EDGE ( 'NONE', *, *, #251, .F. ) ;
#122 = EDGE_CURVE ( 'NONE', #265, #131, #341, .T. ) ;
#123 = EDGE_CURVE ( 'NONE', #295, #322, #36, .T. ) ;
#124 = ADVANCED_FACE ( 'NONE', ( #361 ), #104, .T. ) ;
#125 = ORIENTED_EDGE ( 'NONE', *, *, #35, .F. ) ;
#126 = AXIS2_PLACEMENT_3D ( 'NONE', #314, #166, #73 ) ;
#127 = CARTESIAN_POINT ( 'NONE',  ( 8.728703347107833388E-14, -3.191168277921738509E-15, 25.00000000000000000 ) ) ;
#128 = AXIS2_PLACEMENT_3D ( 'NONE', #127, #47, #248 ) ;
#129 = ORIENTED_EDGE ( 'NONE', *, *, #252, .T. ) ;
#130 = MANIFOLD_SOLID_BREP ( 'Corps-Déplacer/Copier1[1]', #304 ) ;
#131 = VERTEX_POINT ( 'NONE', #232 ) ;
#132 = VERTEX_POINT ( 'NONE', #227 ) ;
#133 = CIRCLE ( 'NONE', #275, 4.000000000000000000 ) ;
#134 = CARTESIAN_POINT ( 'NONE',  ( -6.413786353522006010E-31, 2.249653418127174851E-32, -1.836981421658449757E-16 ) ) ;
#135 = COORDINATED_UNIVERSAL_TIME_OFFSET ( 1, 0, .AHEAD. ) ;
#136 = ADVANCED_FACE ( 'NONE', ( #74 ), #53, .F. ) ;
#137 = DIRECTION ( 'NONE',  ( 3.491481338843133355E-15, -1.276467311168695266E-16, 1.000000000000000000 ) ) ;
#138 = CARTESIAN_POINT ( 'NONE',  ( 1.068326120964400576E-13, -3.905744406844097492E-15, 30.59807621135330535 ) ) ;
#139 = EDGE_CURVE ( 'NONE', #221, #132, #288, .T. ) ;
#140 = CC_DESIGN_SECURITY_CLASSIFICATION ( #26, ( #184 ) ) ;
#141 = FACE_OUTER_BOUND ( 'NONE', #113, .T. ) ;
#142 = APPROVAL ( #49, 'UNSPECIFIED' ) ;
#143 = FACE_OUTER_BOUND ( 'NONE', #175, .T. ) ;
#144 = ORIENTED_EDGE ( 'NONE', *, *, #153, .F. ) ;
#145 = PERSON_AND_ORGANIZATION ( #3, #230 ) ;
#146 = DIRECTION ( 'NONE',  ( 0.000000000000000000, -1.000000000000000000, 0.000000000000000000 ) ) ;
#147 = ADVANCED_FACE ( 'NONE', ( #141 ), #282, .F. ) ;
#148 = CC_DESIGN_PERSON_AND_ORGANIZATION_ASSIGNMENT ( #323, #199, ( #184 ) ) ;
#149 = EDGE_LOOP ( 'NONE', ( #87, #110, #219, #240 ) ) ;
#150 = PLANE ( 'NONE',  #215 ) ;
#151 = AXIS2_PLACEMENT_3D ( 'NONE', #360, #137, #313 ) ;
#152 = CARTESIAN_POINT ( 'NONE',  ( 1.524389622222840670E-13, -5.573088707662932751E-15, 43.66025403784433223 ) ) ;
#153 = EDGE_CURVE ( 'NONE', #194, #132, #285, .T. ) ;
#154 =( LENGTH_UNIT ( ) NAMED_UNIT ( * ) SI_UNIT ( .MILLI., .METRE. ) );
#155 = CARTESIAN_POINT ( 'NONE',  ( 2.793185071074506684E-13, -9.797174393178826052E-15, 80.00000000000000000 ) ) ;
#156 = ADVANCED_BREP_SHAPE_REPRESENTATION ( '372742', ( #130, #253, #37 ), #82 ) ;
#157 = FACE_OUTER_BOUND ( 'NONE', #344, .T. ) ;
#158 = EDGE_CURVE ( 'NONE', #348, #194, #84, .T. ) ;
#159 = VERTEX_POINT ( 'NONE', #65 ) ;
#160 = APPROVAL_ROLE ( '' ) ;
#161 = CARTESIAN_POINT ( 'NONE',  ( 8.728703347107833388E-14, -2.500000000000001332, 25.00000000000000000 ) ) ;
#162 = PRODUCT_DEFINITION ( 'UNKNOWN', '', #184, #315 ) ;
#163 = VECTOR ( 'NONE', #236, 1000.000000000000000 ) ;
#164 = DIRECTION ( 'NONE',  ( 3.491481338843133355E-15, -1.224646799147353207E-16, 1.000000000000000000 ) ) ;
#165 = DIRECTION ( 'NONE',  ( -3.491481338843133355E-15, 1.224646799147353207E-16, -1.000000000000000000 ) ) ;
#166 = DIRECTION ( 'NONE',  ( -3.491481338843133355E-15, 1.224646799147353207E-16, -1.000000000000000000 ) ) ;
#167 = CIRCLE ( 'NONE', #10, 4.000000000000003553 ) ;
#168 = LOCAL_TIME ( 9, 9, 3.000000000000000000, #61 ) ;
#169 = UNCERTAINTY_MEASURE_WITH_UNIT (LENGTH_MEASURE( 1.000000000000000082E-05 ), #154, 'distance_accuracy_value', 'NONE');
#170 = DIRECTION ( 'NONE',  ( -3.491481338843133355E-15, 1.224646799147353207E-16, -1.000000000000000000 ) ) ;
#171 = APPROVAL_STATUS ( 'not_yet_approved' ) ;
#172 = FACE_OUTER_BOUND ( 'NONE', #334, .T. ) ;
#173 = ORIENTED_EDGE ( 'NONE', *, *, #83, .T. ) ;
#174 = SECURITY_CLASSIFICATION_LEVEL ( 'unclassified' ) ;
#175 = EDGE_LOOP ( 'NONE', ( #44, #33 ) ) ;
#176 = AXIS2_PLACEMENT_3D ( 'NONE', #134, #164, #257 ) ;
#177 = CARTESIAN_POINT ( 'NONE',  ( -4.366296621242861857E-30, -2.499999999999997780, -1.250557055158023324E-15 ) ) ;
#178 = SHAPE_DEFINITION_REPRESENTATION ( #7, #156 ) ;
#179 =( NAMED_UNIT ( * ) SI_UNIT ( $, .STERADIAN. ) SOLID_ANGLE_UNIT ( ) );
#180 = ADVANCED_FACE ( 'NONE', ( #143 ), #150, .T. ) ;
#181 = ORIENTED_EDGE ( 'NONE', *, *, #158, .F. ) ;
#182 = VECTOR ( 'NONE', #300, 1000.000000000000000 ) ;
#183 = CIRCLE ( 'NONE', #247, 4.000000000000003553 ) ;
#184 = PRODUCT_DEFINITION_FORMATION_WITH_SPECIFIED_SOURCE ( 'ANY', '', #109, .NOT_KNOWN. ) ;
#185 = CARTESIAN_POINT ( 'NONE',  ( 4.898587196589396065E-16, -4.000000000000000000, -4.898587196589429592E-16 ) ) ;
#186 = ORIENTED_EDGE ( 'NONE', *, *, #6, .F. ) ;
#187 = CC_DESIGN_PERSON_AND_ORGANIZATION_ASSIGNMENT ( #308, #34, ( #162 ) ) ;
#188 = CARTESIAN_POINT ( 'NONE',  ( 2.793185071074506684E-13, -9.797174393178826052E-15, 80.00000000000000000 ) ) ;
#189 = FACE_OUTER_BOUND ( 'NONE', #281, .T. ) ;
#190 = CONICAL_SURFACE ( 'NONE', #118, 3.200000000000003730, 0.7853981633974512766 ) ;
#191 = CC_DESIGN_DATE_AND_TIME_ASSIGNMENT ( #238, #72, ( #162 ) ) ;
#192 = CYLINDRICAL_SURFACE ( 'NONE', #42, 2.499999999999997780 ) ;
#193 = COORDINATED_UNIVERSAL_TIME_OFFSET ( 1, 0, .AHEAD. ) ;
#194 = VERTEX_POINT ( 'NONE', #114 ) ;
#195 = ADVANCED_FACE ( 'NONE', ( #270 ), #209, .T. ) ;
#196 = VECTOR ( 'NONE', #205, 1000.000000000000114 ) ;
#197 = CARTESIAN_POINT ( 'NONE',  ( 1.710332578358783443E-30, 4.000000000000000000, 4.898587196589412829E-16 ) ) ;
#198 = FACE_OUTER_BOUND ( 'NONE', #331, .T. ) ;
#199 = PERSON_AND_ORGANIZATION_ROLE ( 'creator' ) ;
#200 = APPLICATION_CONTEXT ( 'configuration controlled 3d designs of mechanical parts and assemblies' ) ;
#201 = APPLICATION_PROTOCOL_DEFINITION ( 'international standard', 'config_control_design', 1994, #200 ) ;
#202 = DIRECTION ( 'NONE',  ( 0.000000000000000000, 1.000000000000000000, 0.000000000000000000 ) ) ;
#203 = ORIENTED_EDGE ( 'NONE', *, *, #139, .F. ) ;
#204 = APPROVAL_DATE_TIME ( #78, #68 ) ;
#205 = DIRECTION ( 'NONE',  ( -2.468850131082257455E-15, 0.7071067811865497932, -0.7071067811865453523 ) ) ;
#206 = ORIENTED_EDGE ( 'NONE', *, *, #153, .T. ) ;
#207 = ORIENTED_EDGE ( 'NONE', *, *, #83, .F. ) ;
#208 = CIRCLE ( 'NONE', #48, 2.499999999999998224 ) ;
#209 = CYLINDRICAL_SURFACE ( 'NONE', #75, 4.000000000000000000 ) ;
#210 = ORIENTED_EDGE ( 'NONE', *, *, #27, .T. ) ;
#211 = APPROVAL_DATE_TIME ( #330, #142 ) ;
#212 = LINE ( 'NONE', #185, #294 ) ;
#213 = CC_DESIGN_PERSON_AND_ORGANIZATION_ASSIGNMENT ( #106, #111, ( #184 ) ) ;
#214 = DIRECTION ( 'NONE',  ( -3.491481338843133355E-15, 1.224646799147353207E-16, -1.000000000000000000 ) ) ;
#215 = AXIS2_PLACEMENT_3D ( 'NONE', #5, #273, #59 ) ;
#216 = CC_DESIGN_APPROVAL ( #218, ( #162 ) ) ;
#217 = FACE_OUTER_BOUND ( 'NONE', #117, .T. ) ;
#218 = APPROVAL ( #85, 'UNSPECIFIED' ) ;
#219 = ORIENTED_EDGE ( 'NONE', *, *, #328, .F. ) ;
#220 = EDGE_CURVE ( 'NONE', #18, #194, #167, .T. ) ;
#221 = VERTEX_POINT ( 'NONE', #241 ) ;
#222 = AXIS2_PLACEMENT_3D ( 'NONE', #88, #289, #40 ) ;
#223 = DATE_TIME_ROLE ( 'classification_date' ) ;
#224 = DIRECTION ( 'NONE',  ( 3.491481338843133355E-15, -1.276467311168695266E-16, 1.000000000000000000 ) ) ;
#225 = PERSON_AND_ORGANIZATION ( #3, #230 ) ;
#226 = DIRECTION ( 'NONE',  ( 3.491481338843133355E-15, -1.276467311168695266E-16, 1.000000000000000000 ) ) ;
#227 = CARTESIAN_POINT ( 'NONE',  ( 1.916789670664081665E-13, 3.999999999999995559, 30.59807621135330535 ) ) ;
#228 = CIRCLE ( 'NONE', #325, 2.499999999999997780 ) ;
#229 = CARTESIAN_POINT ( 'NONE',  ( 2.793185071074506684E-13, -9.797174393178826052E-15, 80.00000000000000000 ) ) ;
#230 = ORGANIZATION ( 'UNSPECIFIED', 'UNSPECIFIED', '' ) ;
#231 = ADVANCED_FACE ( 'NONE', ( #296 ), #8, .F. ) ;
#232 = CARTESIAN_POINT ( 'NONE',  ( 8.728703347107833388E-14, -2.500000000000001332, 25.00000000000000000 ) ) ;
#233 = PERSON_AND_ORGANIZATION_ROLE ( 'classification_officer' ) ;
#234 = CALENDAR_DATE ( 2023, 31, 3 ) ;
#235 = CC_DESIGN_PERSON_AND_ORGANIZATION_ASSIGNMENT ( #225, #362, ( #109 ) ) ;
#236 = DIRECTION ( 'NONE',  ( -3.491481338843133355E-15, 1.224646799147353207E-16, -1.000000000000000000 ) ) ;
#237 = LOCAL_TIME ( 9, 9, 3.000000000000000000, #28 ) ;
#238 = DATE_AND_TIME ( #234, #168 ) ;
#239 = DIRECTION ( 'NONE',  ( -2.382254525458708792E-15, -0.7071067811865495711, -0.7071067811865455743 ) ) ;
#240 = ORIENTED_EDGE ( 'NONE', *, *, #97, .F. ) ;
#241 = CARTESIAN_POINT ( 'NONE',  ( 9.745783299348210391E-14, 2.499999999999995115, 25.00000000000000000 ) ) ;
#242 = ORIENTED_EDGE ( 'NONE', *, *, #139, .T. ) ;
#243 = ORIENTED_EDGE ( 'NONE', *, *, #158, .T. ) ;
#244 = DIRECTION ( 'NONE',  ( 4.275831445896958607E-31, 1.000000000000000000, 1.224646799147353207E-16 ) ) ;
#245 = CARTESIAN_POINT ( 'NONE',  ( 8.728703347107833388E-14, -3.191168277921738509E-15, 25.00000000000000000 ) ) ;
#246 = ORIENTED_EDGE ( 'NONE', *, *, #283, .T. ) ;
#247 = AXIS2_PLACEMENT_3D ( 'NONE', #92, #354, #96 ) ;
#248 = DIRECTION ( 'NONE',  ( 0.000000000000000000, -1.000000000000000000, 0.000000000000000000 ) ) ;
#249 = ORIENTED_EDGE ( 'NONE', *, *, #122, .F. ) ;
#250 = DIRECTION ( 'NONE',  ( 0.000000000000000000, -1.000000000000000000, 0.000000000000000000 ) ) ;
#251 = EDGE_CURVE ( 'NONE', #159, #18, #264, .T. ) ;
#252 = EDGE_CURVE ( 'NONE', #4, #132, #133, .T. ) ;
#253 = MANIFOLD_SOLID_BREP ( 'Corps-Déplacer/Copier1[2]', #98 ) ;
#254 = ORIENTED_EDGE ( 'NONE', *, *, #102, .F. ) ;
#255 = CIRCLE ( 'NONE', #357, 3.200000000000003730 ) ;
#256 = MECHANICAL_CONTEXT ( 'NONE', #200, 'mechanical' ) ;
#257 = DIRECTION ( 'NONE',  ( -4.275831445896958607E-31, -1.000000000000000000, -1.224646799147353207E-16 ) ) ;
#258 = DIRECTION ( 'NONE',  ( 0.000000000000000000, 1.000000000000000000, 0.000000000000000000 ) ) ;
#259 = VECTOR ( 'NONE', #297, 1000.000000000000114 ) ;
#260 = DIRECTION ( 'NONE',  ( -4.456761796588770537E-31, -1.000000000000000000, -1.276467311168695512E-16 ) ) ;
#261 = PRODUCT_RELATED_PRODUCT_CATEGORY ( 'detail', '', ( #109 ) ) ;
#262 = CALENDAR_DATE ( 2023, 31, 3 ) ;
#263 = DIRECTION ( 'NONE',  ( 0.000000000000000000, 0.000000000000000000, 1.000000000000000000 ) ) ;
#264 = LINE ( 'NONE', #112, #332 ) ;
#265 = VERTEX_POINT ( 'NONE', #324 ) ;
#266 = APPLICATION_PROTOCOL_DEFINITION ( 'international standard', 'config_control_design', 1994, #80 ) ;
#267 = ADVANCED_FACE ( 'NONE', ( #172 ), #63, .T. ) ;
#268 = EDGE_CURVE ( 'NONE', #322, #295, #228, .T. ) ;
#269 = AXIS2_PLACEMENT_3D ( 'NONE', #152, #351, #250 ) ;
#270 = FACE_OUTER_BOUND ( 'NONE', #89, .T. ) ;
#271 = DIRECTION ( 'NONE',  ( 1.000000000000000000, 0.000000000000000000, 0.000000000000000000 ) ) ;
#272 = EDGE_LOOP ( 'NONE', ( #60, #277 ) ) ;
#273 = DIRECTION ( 'NONE',  ( 3.491481338843133355E-15, -1.224646799147353207E-16, 1.000000000000000000 ) ) ;
#274 = ORIENTED_EDGE ( 'NONE', *, *, #251, .T. ) ;
#275 = AXIS2_PLACEMENT_3D ( 'NONE', #347, #321, #11 ) ;
#276 = CC_DESIGN_PERSON_AND_ORGANIZATION_ASSIGNMENT ( #145, #233, ( #26 ) ) ;
#277 = ORIENTED_EDGE ( 'NONE', *, *, #283, .F. ) ;
#278 = DIRECTION ( 'NONE',  ( -3.491481338843133355E-15, 1.224646799147353207E-16, -1.000000000000000000 ) ) ;
#279 = AXIS2_PLACEMENT_3D ( 'NONE', #291, #39, #146 ) ;
#280 = DIRECTION ( 'NONE',  ( -3.491481338843133355E-15, 1.224646799147353207E-16, -1.000000000000000000 ) ) ;
#281 = EDGE_LOOP ( 'NONE', ( #203, #246, #353, #129 ) ) ;
#282 = PLANE ( 'NONE',  #176 ) ;
#283 = EDGE_CURVE ( 'NONE', #221, #115, #208, .T. ) ;
#284 = AXIS2_PLACEMENT_3D ( 'NONE', #342, #55, #107 ) ;
#285 = LINE ( 'NONE', #197, #163 ) ;
#286 = CARTESIAN_POINT ( 'NONE',  ( -3.252106172095669792E-30, 9.544663782522175102E-32, -9.314402273658498283E-16 ) ) ;
#287 = VECTOR ( 'NONE', #226, 1000.000000000000000 ) ;
#288 = LINE ( 'NONE', #29, #19 ) ;
#289 = DIRECTION ( 'NONE',  ( 3.491481338843133355E-15, -1.224646799147353207E-16, 1.000000000000000000 ) ) ;
#290 = APPROVAL_ROLE ( '' ) ;
#291 = CARTESIAN_POINT ( 'NONE',  ( 1.524389622222840670E-13, -5.573088707662932751E-15, 43.66025403784433223 ) ) ;
#292 = ORIENTED_EDGE ( 'NONE', *, *, #311, .T. ) ;
#293 = AXIS2_PLACEMENT_3D ( 'NONE', #105, #30, #260 ) ;
#294 = VECTOR ( 'NONE', #333, 1000.000000000000000 ) ;
#295 = VERTEX_POINT ( 'NONE', #177 ) ;
#296 = FACE_OUTER_BOUND ( 'NONE', #272, .T. ) ;
#297 = DIRECTION ( 'NONE',  ( 3.372511997194914833E-15, -0.2588190451025214611, 0.9659258262890679791 ) ) ;
#298 = ORIENTED_EDGE ( 'NONE', *, *, #268, .T. ) ;
#299 = EDGE_CURVE ( 'NONE', #115, #4, #93, .T. ) ;
#300 = DIRECTION ( 'NONE',  ( 3.491481338843133355E-15, -1.276467311168695266E-16, 1.000000000000000000 ) ) ;
#301 = DIRECTION ( 'NONE',  ( 3.491481338843133355E-15, -1.276467311168695266E-16, 1.000000000000000000 ) ) ;
#302 = CARTESIAN_POINT ( 'NONE',  ( 2.793185071074506684E-13, 3.199999999999993516, 80.00000000000000000 ) ) ;
#303 = CARTESIAN_POINT ( 'NONE',  ( 1.921688257860669051E-13, -4.000000000000013323, 79.20000000000000284 ) ) ;
#304 = CLOSED_SHELL ( 'NONE', ( #267, #103, #23, #195, #46, #136, #17, #231 ) ) ;
#305 = DIRECTION ( 'NONE',  ( -4.456761796588770537E-31, -1.000000000000000000, -1.276467311168695512E-16 ) ) ;
#306 = PERSON_AND_ORGANIZATION ( #3, #230 ) ;
#307 = CARTESIAN_POINT ( 'NONE',  ( 3.061616997868385606E-16, 2.499999999999997780, 1.354171574315284349E-16 ) ) ;
#308 = PERSON_AND_ORGANIZATION ( #3, #230 ) ;
#309 = DIRECTION ( 'NONE',  ( -4.456761796588771413E-31, -1.000000000000000000, -1.276467311168695019E-16 ) ) ;
#310 = CIRCLE ( 'NONE', #100, 3.200000000000003730 ) ;
#311 = EDGE_CURVE ( 'NONE', #18, #4, #212, .T. ) ;
#312 = CC_DESIGN_DATE_AND_TIME_ASSIGNMENT ( #316, #223, ( #26 ) ) ;
#313 = DIRECTION ( 'NONE',  ( 0.000000000000000000, -1.000000000000000000, 0.000000000000000000 ) ) ;
#314 = CARTESIAN_POINT ( 'NONE',  ( 2.793185071074506684E-13, -9.797174393178826052E-15, 80.00000000000000000 ) ) ;
#315 = DESIGN_CONTEXT ( 'detailed design', #80, 'design' ) ;
#316 = DATE_AND_TIME ( #99, #237 ) ;
#317 = CONICAL_SURFACE ( 'NONE', #269, 7.499999999999998224, 0.2617993877991501295 ) ;
#318 = CIRCLE ( 'NONE', #31, 2.499999999999998224 ) ;
#319 = CC_DESIGN_APPROVAL ( #142, ( #26 ) ) ;
#320 = COORDINATED_UNIVERSAL_TIME_OFFSET ( 1, 0, .AHEAD. ) ;
#321 = DIRECTION ( 'NONE',  ( -3.491481338843133355E-15, 1.276467311168695266E-16, -1.000000000000000000 ) ) ;
#322 = VERTEX_POINT ( 'NONE', #21 ) ;
#323 = PERSON_AND_ORGANIZATION ( #3, #230 ) ;
#324 = CARTESIAN_POINT ( 'NONE',  ( 4.394967843532600481E-14, 2.499999999999995115, 25.00000000000000000 ) ) ;
#325 = AXIS2_PLACEMENT_3D ( 'NONE', #329, #345, #86 ) ;
#326 = CIRCLE ( 'NONE', #128, 2.499999999999998224 ) ;
#327 = ORIENTED_EDGE ( 'NONE', *, *, #252, .F. ) ;
#328 = EDGE_CURVE ( 'NONE', #131, #265, #326, .T. ) ;
#329 = CARTESIAN_POINT ( 'NONE',  ( -3.252106172095669792E-30, 9.544663782522175102E-32, -9.314402273658498283E-16 ) ) ;
#330 = DATE_AND_TIME ( #262, #64 ) ;
#331 = EDGE_LOOP ( 'NONE', ( #173, #274, #125, #181 ) ) ;
#332 = VECTOR ( 'NONE', #239, 1000.000000000000114 ) ;
#333 = DIRECTION ( 'NONE',  ( -3.491481338843133355E-15, 1.224646799147353207E-16, -1.000000000000000000 ) ) ;
#334 = EDGE_LOOP ( 'NONE', ( #210, #242, #356, #41 ) ) ;
#335 = ORIENTED_EDGE ( 'NONE', *, *, #268, .F. ) ;
#336 = DIRECTION ( 'NONE',  ( 0.000000000000000000, 1.000000000000000000, 0.000000000000000000 ) ) ;
#337 = CIRCLE ( 'NONE', #25, 4.000000000000000000 ) ;
#338 = EDGE_LOOP ( 'NONE', ( #207, #38 ) ) ;
#339 = APPROVAL_ROLE ( '' ) ;
#340 = DIRECTION ( 'NONE',  ( 3.491481338843133355E-15, -1.276467311168695266E-16, 1.000000000000000000 ) ) ;
#341 = CIRCLE ( 'NONE', #151, 2.499999999999998224 ) ;
#342 = CARTESIAN_POINT ( 'NONE',  ( 2.793185071074506684E-13, 2.399615652258959856E-32, 80.00000000000000000 ) ) ;
#343 = CALENDAR_DATE ( 2023, 31, 3 ) ;
#344 = EDGE_LOOP ( 'NONE', ( #13, #292, #254, #144 ) ) ;
#345 = DIRECTION ( 'NONE',  ( 3.491481338843133355E-15, -1.276467311168695266E-16, 1.000000000000000000 ) ) ;
#346 = ORIENTED_EDGE ( 'NONE', *, *, #94, .T. ) ;
#347 = CARTESIAN_POINT ( 'NONE',  ( 1.068326120964400576E-13, -3.905744406844097492E-15, 30.59807621135330535 ) ) ;
#348 = VERTEX_POINT ( 'NONE', #302 ) ;
#349 = CARTESIAN_POINT ( 'NONE',  ( 2.793185071074506684E-13, 3.199999999999993516, 80.00000000000000000 ) ) ;
#350 = LINE ( 'NONE', #307, #182 ) ;
#351 = DIRECTION ( 'NONE',  ( 3.491481338843133355E-15, -1.276467311168695266E-16, 1.000000000000000000 ) ) ;
#352 = AXIS2_PLACEMENT_3D ( 'NONE', #286, #340, #309 ) ;
#353 = ORIENTED_EDGE ( 'NONE', *, *, #299, .T. ) ;
#354 = DIRECTION ( 'NONE',  ( -3.491481338843133355E-15, 1.224646799147353207E-16, -1.000000000000000000 ) ) ;
#355 = CARTESIAN_POINT ( 'NONE',  ( 1.524389622222840670E-13, -7.500000000000003553, 43.66025403784433223 ) ) ;
#356 = ORIENTED_EDGE ( 'NONE', *, *, #102, .T. ) ;
#357 = AXIS2_PLACEMENT_3D ( 'NONE', #229, #165, #258 ) ;
#358 = CALENDAR_DATE ( 2023, 31, 3 ) ;
#359 = DIRECTION ( 'NONE',  ( -2.131628207280300558E-14, -1.000000000000000000, 0.000000000000000000 ) ) ;
#360 = CARTESIAN_POINT ( 'NONE',  ( 8.728703347107833388E-14, -3.191168277921738509E-15, 25.00000000000000000 ) ) ;
#361 = FACE_OUTER_BOUND ( 'NONE', #91, .T. ) ;
#362 = PERSON_AND_ORGANIZATION_ROLE ( 'design_owner' ) ;
#363 = DATE_AND_TIME ( #358, #20 ) ;
ENDSEC;
END-ISO-10303-21;
