ISO-10303-21;
HEADER;
FILE_DESCRIPTION (( 'STEP AP203' ),
    '1' );
FILE_NAME ('372741.step',
    '2023-03-31T07:09:02',
    ( '' ),
    ( '' ),
    'SwSTEP 2.0',
    'SolidWorks 2022',
    '' );
FILE_SCHEMA (( 'CONFIG_CONTROL_DESIGN' ));
ENDSEC;

DATA;
#1 = ORIENTED_EDGE ( 'NONE', *, *, #11, .T. ) ;
#2 = PERSON_AND_ORGANIZATION_ROLE ( 'design_supplier' ) ;
#3 = AXIS2_PLACEMENT_3D ( 'NONE', #272, #186, #134 ) ;
#4 = EDGE_LOOP ( 'NONE', ( #283, #86, #314, #265 ) ) ;
#5 = DIRECTION ( 'NONE',  ( 0.000000000000000000, -1.000000000000000000, 0.000000000000000000 ) ) ;
#6 = ADVANCED_FACE ( 'NONE', ( #59 ), #303, .T. ) ;
#7 = MANIFOLD_SOLID_BREP ( 'Corps-Déplacer/Copier1[1]', #279 ) ;
#8 = DIRECTION ( 'NONE',  ( 0.000000000000000000, 1.000000000000000000, 0.000000000000000000 ) ) ;
#9 = VERTEX_POINT ( 'NONE', #16 ) ;
#10 = LINE ( 'NONE', #119, #151 ) ;
#11 = EDGE_CURVE ( 'NONE', #106, #197, #318, .T. ) ;
#12 = ORIENTED_EDGE ( 'NONE', *, *, #81, .F. ) ;
#13 = CARTESIAN_POINT ( 'NONE',  ( 1.070497048173233081E-13, -3.913681203143628758E-15, 30.66025403784432868 ) ) ;
#14 = APPROVAL_ROLE ( '' ) ;
#15 = DIRECTION ( 'NONE',  ( 3.491481338843133355E-15, -1.276467311168695266E-16, 1.000000000000000000 ) ) ;
#16 = CARTESIAN_POINT ( 'NONE',  ( -4.366296621242861857E-30, -2.499999999999997780, -1.250557055158023324E-15 ) ) ;
#17 = AXIS2_PLACEMENT_3D ( 'NONE', #54, #264, #282 ) ;
#18 = LOCAL_TIME ( 9, 9, 2.000000000000000000, #47 ) ;
#19 = ADVANCED_FACE ( 'NONE', ( #41 ), #49, .T. ) ;
#20 = DIRECTION ( 'NONE',  ( 3.491481338843133355E-15, -1.276467311168695266E-16, 1.000000000000000000 ) ) ;
#21 = CARTESIAN_POINT ( 'NONE',  ( -3.252106172095669792E-30, 9.544663782522175102E-32, -9.314402273658498283E-16 ) ) ;
#22 = VECTOR ( 'NONE', #221, 1000.000000000000000 ) ;
#23 = PERSON ( 'UNSPECIFIED', 'UNSPECIFIED', 'UNSPECIFIED', ('UNSPECIFIED'), ('UNSPECIFIED'), ('UNSPECIFIED') ) ;
#24 = DATE_AND_TIME ( #104, #18 ) ;
#25 = CARTESIAN_POINT ( 'NONE',  ( 1.745740669421566678E-13, 1.799711739194218455E-32, 50.00000000000000000 ) ) ;
#26 = EDGE_LOOP ( 'NONE', ( #84, #150, #206, #144 ) ) ;
#27 = FACE_OUTER_BOUND ( 'NONE', #202, .T. ) ;
#28 = AXIS2_PLACEMENT_3D ( 'NONE', #328, #20, #210 ) ;
#29 = SECURITY_CLASSIFICATION ( '', '', #231 ) ;
#30 = CARTESIAN_POINT ( 'NONE',  ( 1.745740669421566678E-13, -6.123233995736766085E-15, 50.00000000000000000 ) ) ;
#31 = ADVANCED_FACE ( 'NONE', ( #152 ), #348, .T. ) ;
#32 = VERTEX_POINT ( 'NONE', #271 ) ;
#33 = PRODUCT ( '372741', '372741', '', ( #92 ) ) ;
#34 = ORIENTED_EDGE ( 'NONE', *, *, #316, .T. ) ;
#35 = DIRECTION ( 'NONE',  ( 0.000000000000000000, 1.000000000000000000, 0.000000000000000000 ) ) ;
#36 = CARTESIAN_POINT ( 'NONE',  ( 2.125504973284563800E-14, 2.499999999999995115, 12.00000000000000000 ) ) ;
#37 = ORIENTED_EDGE ( 'NONE', *, *, #160, .T. ) ;
#38 = AXIS2_PLACEMENT_3D ( 'NONE', #133, #132, #246 ) ;
#39 = PERSON_AND_ORGANIZATION ( #23, #44 ) ;
#40 = ORIENTED_EDGE ( 'NONE', *, *, #64, .F. ) ;
#41 = FACE_OUTER_BOUND ( 'NONE', #290, .T. ) ;
#42 = DIRECTION ( 'NONE',  ( 0.000000000000000000, 0.000000000000000000, 1.000000000000000000 ) ) ;
#43 = CIRCLE ( 'NONE', #17, 2.499999999999996891 ) ;
#44 = ORGANIZATION ( 'UNSPECIFIED', 'UNSPECIFIED', '' ) ;
#45 = ADVANCED_FACE ( 'NONE', ( #267 ), #266, .T. ) ;
#46 = DIRECTION ( 'NONE',  ( 4.275831445896958607E-31, 1.000000000000000000, 1.224646799147353207E-16 ) ) ;
#47 = COORDINATED_UNIVERSAL_TIME_OFFSET ( 1, 0, .AHEAD. ) ;
#48 = LINE ( 'NONE', #192, #22 ) ;
#49 = CONICAL_SURFACE ( 'NONE', #28, 7.499999999999997335, 0.2617993877991501850 ) ;
#50 = FACE_OUTER_BOUND ( 'NONE', #51, .T. ) ;
#51 = EDGE_LOOP ( 'NONE', ( #289, #40 ) ) ;
#52 = DIRECTION ( 'NONE',  ( -3.491481338843133355E-15, 1.224646799147353207E-16, -1.000000000000000000 ) ) ;
#53 = DATE_AND_TIME ( #363, #242 ) ;
#54 = CARTESIAN_POINT ( 'NONE',  ( 4.189777606611760026E-14, -1.531760773402434319E-15, 12.00000000000000000 ) ) ;
#55 = ORIENTED_EDGE ( 'NONE', *, *, #94, .T. ) ;
#56 = CALENDAR_DATE ( 2023, 31, 3 ) ;
#57 = ORIENTED_EDGE ( 'NONE', *, *, #94, .F. ) ;
#58 = DIRECTION ( 'NONE',  ( -3.491481338843133355E-15, 1.224646799147353207E-16, -1.000000000000000000 ) ) ;
#59 = FACE_OUTER_BOUND ( 'NONE', #234, .T. ) ;
#60 = ORIENTED_EDGE ( 'NONE', *, *, #11, .F. ) ;
#61 = CIRCLE ( 'NONE', #295, 2.499999999999997780 ) ;
#62 = LOCAL_TIME ( 9, 9, 2.000000000000000000, #193 ) ;
#63 = CARTESIAN_POINT ( 'NONE',  ( 4.189777606611760026E-14, -1.531760773402434319E-15, 12.00000000000000000 ) ) ;
#64 = EDGE_CURVE ( 'NONE', #262, #343, #96, .T. ) ;
#65 = DIRECTION ( 'NONE',  ( 0.000000000000000000, -1.000000000000000000, 0.000000000000000000 ) ) ;
#66 = CARTESIAN_POINT ( 'NONE',  ( 4.189777606611760026E-14, -1.531760773402434319E-15, 12.00000000000000000 ) ) ;
#67 = VECTOR ( 'NONE', #273, 1000.000000000000000 ) ;
#68 = LOCAL_TIME ( 9, 9, 2.000000000000000000, #299 ) ;
#69 = EDGE_CURVE ( 'NONE', #343, #32, #182, .T. ) ;
#70 = COORDINATED_UNIVERSAL_TIME_OFFSET ( 1, 0, .AHEAD. ) ;
#71 = DIRECTION ( 'NONE',  ( 3.491481338843133355E-15, -1.224646799147353207E-16, 1.000000000000000000 ) ) ;
#72 = DIRECTION ( 'NONE',  ( 0.000000000000000000, -1.000000000000000000, 0.000000000000000000 ) ) ;
#73 = ORIENTED_EDGE ( 'NONE', *, *, #115, .F. ) ;
#74 = CARTESIAN_POINT ( 'NONE',  ( 4.189777606611760026E-14, -2.499999999999998668, 12.00000000000000000 ) ) ;
#75 = CIRCLE ( 'NONE', #359, 2.999999999999994671 ) ;
#76 = ORIENTED_EDGE ( 'NONE', *, *, #252, .F. ) ;
#77 = DIRECTION ( 'NONE',  ( 3.491481338843133355E-15, -1.276467311168695266E-16, 1.000000000000000000 ) ) ;
#78 = DIRECTION ( 'NONE',  ( -4.275831445896958607E-31, -1.000000000000000000, -1.224646799147353207E-16 ) ) ;
#79 = ORIENTED_EDGE ( 'NONE', *, *, #245, .F. ) ;
#80 = PERSON_AND_ORGANIZATION ( #23, #44 ) ;
#81 = EDGE_CURVE ( 'NONE', #197, #180, #244, .T. ) ;
#82 = ORIENTED_EDGE ( 'NONE', *, *, #173, .T. ) ;
#83 = DIRECTION ( 'NONE',  ( -3.491481338843133355E-15, 1.224646799147353207E-16, -1.000000000000000000 ) ) ;
#84 = ORIENTED_EDGE ( 'NONE', *, *, #118, .F. ) ;
#85 = CARTESIAN_POINT ( 'NONE',  ( 1.724791781388508004E-13, -6.049755187787925154E-15, 49.39999999999999858 ) ) ;
#86 = ORIENTED_EDGE ( 'NONE', *, *, #118, .T. ) ;
#87 = EDGE_LOOP ( 'NONE', ( #176, #34, #319, #103 ) ) ;
#88 = PLANE ( 'NONE',  #249 ) ;
#89 = CIRCLE ( 'NONE', #324, 2.499999999999996891 ) ;
#90 = DIRECTION ( 'NONE',  ( 1.000000000000000000, 0.000000000000000000, 0.000000000000000000 ) ) ;
#91 = DIRECTION ( 'NONE',  ( 3.491481338843133355E-15, -1.276467311168695266E-16, 1.000000000000000000 ) ) ;
#92 = MECHANICAL_CONTEXT ( 'NONE', #125, 'mechanical' ) ;
#93 = CARTESIAN_POINT ( 'NONE',  ( 1.748679821739520473E-13, -2.400000000000003908, 50.00000000000000000 ) ) ;
#94 = EDGE_CURVE ( 'NONE', #9, #235, #184, .T. ) ;
#95 = APPROVAL_ROLE ( '' ) ;
#96 = CIRCLE ( 'NONE', #38, 2.399999999999997691 ) ;
#97 = FACE_OUTER_BOUND ( 'NONE', #232, .T. ) ;
#98 = CC_DESIGN_PERSON_AND_ORGANIZATION_ASSIGNMENT ( #111, #142, ( #325 ) ) ;
#99 = PRODUCT_DEFINITION_SHAPE ( 'NONE', 'NONE',  #149 ) ;
#100 = DIRECTION ( 'NONE',  ( -3.491481338843133355E-15, 1.224646799147353207E-16, -1.000000000000000000 ) ) ;
#101 = AXIS2_PLACEMENT_3D ( 'NONE', #165, #191, #140 ) ;
#102 = PLANE ( 'NONE',  #145 ) ;
#103 = ORIENTED_EDGE ( 'NONE', *, *, #292, .F. ) ;
#104 = CALENDAR_DATE ( 2023, 31, 3 ) ;
#105 = CARTESIAN_POINT ( 'NONE',  ( 4.189777606611760026E-14, -1.531760773402434319E-15, 12.00000000000000000 ) ) ;
#106 = VERTEX_POINT ( 'NONE', #351 ) ;
#107 = MANIFOLD_SOLID_BREP ( 'Corps-Déplacer/Copier1[2]', #288 ) ;
#108 = PERSON_AND_ORGANIZATION ( #23, #44 ) ;
#109 = ORIENTED_EDGE ( 'NONE', *, *, #245, .T. ) ;
#110 = VECTOR ( 'NONE', #185, 1000.000000000000114 ) ;
#111 = PERSON_AND_ORGANIZATION ( #23, #44 ) ;
#112 = CARTESIAN_POINT ( 'NONE',  ( 2.125504973284564747E-14, 2.499999999999997780, -6.123233995737505839E-16 ) ) ;
#113 = CC_DESIGN_DATE_AND_TIME_ASSIGNMENT ( #315, #256, ( #29 ) ) ;
#114 = ORIENTED_EDGE ( 'NONE', *, *, #252, .T. ) ;
#115 = EDGE_CURVE ( 'NONE', #197, #106, #89, .T. ) ;
#116 = CARTESIAN_POINT ( 'NONE',  ( 1.738572771762734887E-13, -2.400000000000003908, 50.00000000000000000 ) ) ;
#117 = ORIENTED_EDGE ( 'NONE', *, *, #115, .T. ) ;
#118 = EDGE_CURVE ( 'NONE', #262, #257, #323, .T. ) ;
#119 = CARTESIAN_POINT ( 'NONE',  ( 3.673940397442041133E-16, -2.999999999999994671, -3.673940397442065784E-16 ) ) ;
#120 = ORIENTED_EDGE ( 'NONE', *, *, #81, .T. ) ;
#121 = CONICAL_SURFACE ( 'NONE', #330, 2.399999999999997691, 0.7853981633974453924 ) ;
#122 = CIRCLE ( 'NONE', #301, 2.999999999999994671 ) ;
#123 = CC_DESIGN_APPROVAL ( #353, ( #29 ) ) ;
#124 = ORIENTED_EDGE ( 'NONE', *, *, #239, .T. ) ;
#125 = APPLICATION_CONTEXT ( 'configuration controlled 3d designs of mechanical parts and assemblies' ) ;
#126 = CC_DESIGN_PERSON_AND_ORGANIZATION_ASSIGNMENT ( #108, #216, ( #149 ) ) ;
#127 = APPROVAL_STATUS ( 'not_yet_approved' ) ;
#128 = CC_DESIGN_PERSON_AND_ORGANIZATION_ASSIGNMENT ( #243, #179, ( #33 ) ) ;
#129 = DIRECTION ( 'NONE',  ( -4.456761796588770537E-31, -1.000000000000000000, -1.276467311168695266E-16 ) ) ;
#130 = VECTOR ( 'NONE', #327, 1000.000000000000000 ) ;
#131 = APPLICATION_PROTOCOL_DEFINITION ( 'international standard', 'config_control_design', 1994, #125 ) ;
#132 = DIRECTION ( 'NONE',  ( -3.491481338843133355E-15, 1.224646799147353207E-16, -1.000000000000000000 ) ) ;
#133 = CARTESIAN_POINT ( 'NONE',  ( 1.745740669421566678E-13, -6.123233995736766085E-15, 50.00000000000000000 ) ) ;
#134 = DIRECTION ( 'NONE',  ( 4.275831445896959482E-31, 1.000000000000000000, 1.224646799147353207E-16 ) ) ;
#135 = AXIS2_PLACEMENT_3D ( 'NONE', #105, #275, #72 ) ;
#136 = CARTESIAN_POINT ( 'NONE',  ( 1.108134675797885542E-13, -3.000000000000003553, 49.39999999999999858 ) ) ;
#137 = UNCERTAINTY_MEASURE_WITH_UNIT (LENGTH_MEASURE( 1.000000000000000082E-05 ), #178, 'distance_accuracy_value', 'NONE');
#138 = ADVANCED_FACE ( 'NONE', ( #297 ), #329, .T. ) ;
#139 = PLANE ( 'NONE',  #349 ) ;
#140 = DIRECTION ( 'NONE',  ( -4.275831445896958607E-31, -1.000000000000000000, -1.224646799147353207E-16 ) ) ;
#141 = CARTESIAN_POINT ( 'NONE',  ( 1.108134675797886552E-13, -2.999999999999996447, 13.86602540378442328 ) ) ;
#142 = PERSON_AND_ORGANIZATION_ROLE ( 'creator' ) ;
#143 = CARTESIAN_POINT ( 'NONE',  ( 4.841296894123813697E-14, -1.769952816376552796E-15, 13.86602540378442328 ) ) ;
#144 = ORIENTED_EDGE ( 'NONE', *, *, #316, .F. ) ;
#145 = AXIS2_PLACEMENT_3D ( 'NONE', #310, #223, #78 ) ;
#146 = CC_DESIGN_APPROVAL ( #247, ( #149 ) ) ;
#147 = ORIENTED_EDGE ( 'NONE', *, *, #239, .F. ) ;
#148 = CARTESIAN_POINT ( 'NONE',  ( 1.724791781388508004E-13, -6.049755187787925154E-15, 49.39999999999999858 ) ) ;
#149 = PRODUCT_DEFINITION ( 'UNKNOWN', '', #325, #356 ) ;
#150 = ORIENTED_EDGE ( 'NONE', *, *, #64, .T. ) ;
#151 = VECTOR ( 'NONE', #321, 1000.000000000000000 ) ;
#152 = FACE_OUTER_BOUND ( 'NONE', #174, .T. ) ;
#153 = CARTESIAN_POINT ( 'NONE',  ( 0.000000000000000000, 0.000000000000000000, 0.000000000000000000 ) ) ;
#154 = ADVANCED_FACE ( 'NONE', ( #97 ), #88, .T. ) ;
#155 = DIRECTION ( 'NONE',  ( 0.000000000000000000, -1.000000000000000000, 0.000000000000000000 ) ) ;
#156 = DIRECTION ( 'NONE',  ( 3.491481338843133355E-15, -1.276467311168695266E-16, 1.000000000000000000 ) ) ;
#157 = EDGE_CURVE ( 'NONE', #32, #169, #207, .T. ) ;
#158 = DATE_AND_TIME ( #326, #68 ) ;
#159 = DIRECTION ( 'NONE',  ( 3.491481338843133355E-15, -1.276467311168695266E-16, 1.000000000000000000 ) ) ;
#160 = EDGE_CURVE ( 'NONE', #362, #345, #298, .T. ) ;
#161 = APPROVAL_DATE_TIME ( #24, #353 ) ;
#162 = DIRECTION ( 'NONE',  ( -3.491481338843133355E-15, 1.224646799147353207E-16, -1.000000000000000000 ) ) ;
#163 = CC_DESIGN_PERSON_AND_ORGANIZATION_ASSIGNMENT ( #198, #195, ( #29 ) ) ;
#164 = CIRCLE ( 'NONE', #135, 2.499999999999996891 ) ;
#165 = CARTESIAN_POINT ( 'NONE',  ( -5.344808899709470047E-31, 1.874706600394511987E-32, -1.530814110402897908E-16 ) ) ;
#166 = CARTESIAN_POINT ( 'NONE',  ( 4.189777606611760026E-14, -2.499999999999998668, 12.00000000000000000 ) ) ;
#167 = DIRECTION ( 'NONE',  ( 3.491481338843133355E-15, -1.276467311168695266E-16, 1.000000000000000000 ) ) ;
#168 = LOCAL_TIME ( 9, 9, 2.000000000000000000, #187 ) ;
#169 = VERTEX_POINT ( 'NONE', #335 ) ;
#170 =( NAMED_UNIT ( * ) SI_UNIT ( $, .STERADIAN. ) SOLID_ANGLE_UNIT ( ) );
#171 = DATE_TIME_ROLE ( 'creation_date' ) ;
#172 = FACE_OUTER_BOUND ( 'NONE', #26, .T. ) ;
#173 = EDGE_CURVE ( 'NONE', #362, #9, #61, .T. ) ;
#174 = EDGE_LOOP ( 'NONE', ( #322, #276, #225, #230 ) ) ;
#175 = APPROVAL_ROLE ( '' ) ;
#176 = ORIENTED_EDGE ( 'NONE', *, *, #360, .F. ) ;
#177 = APPROVAL_PERSON_ORGANIZATION ( #226, #296, #95 ) ;
#178 =( LENGTH_UNIT ( ) NAMED_UNIT ( * ) SI_UNIT ( .MILLI., .METRE. ) );
#179 = PERSON_AND_ORGANIZATION_ROLE ( 'design_owner' ) ;
#180 = VERTEX_POINT ( 'NONE', #141 ) ;
#181 = VECTOR ( 'NONE', #213, 1000.000000000000000 ) ;
#182 = LINE ( 'NONE', #300, #220 ) ;
#183 = PRODUCT_RELATED_PRODUCT_CATEGORY ( 'detail', '', ( #33 ) ) ;
#184 = LINE ( 'NONE', #215, #229 ) ;
#185 = DIRECTION ( 'NONE',  ( 3.372511997194914833E-15, -0.2588190451025215166, 0.9659258262890679791 ) ) ;
#186 = DIRECTION ( 'NONE',  ( -3.491481338843133355E-15, 1.224646799147353207E-16, -1.000000000000000000 ) ) ;
#187 = COORDINATED_UNIVERSAL_TIME_OFFSET ( 1, 0, .AHEAD. ) ;
#188 = DIRECTION ( 'NONE',  ( -4.275831445896958607E-31, -1.000000000000000000, -1.224646799147353207E-16 ) ) ;
#189 = EDGE_CURVE ( 'NONE', #343, #262, #307, .T. ) ;
#190 = AXIS2_PLACEMENT_3D ( 'NONE', #13, #156, #155 ) ;
#191 = DIRECTION ( 'NONE',  ( 3.491481338843133355E-15, -1.224646799147353207E-16, 1.000000000000000000 ) ) ;
#192 = CARTESIAN_POINT ( 'NONE',  ( 1.079681899166838217E-13, 7.499999999999992895, 30.66025403784432868 ) ) ;
#193 = COORDINATED_UNIVERSAL_TIME_OFFSET ( 1, 0, .AHEAD. ) ;
#194 =( GEOMETRIC_REPRESENTATION_CONTEXT ( 3 ) GLOBAL_UNCERTAINTY_ASSIGNED_CONTEXT ( ( #137 ) ) GLOBAL_UNIT_ASSIGNED_CONTEXT ( ( #178, #237, #170 ) ) REPRESENTATION_CONTEXT ( 'NONE', 'WORKASPACE' ) );
#195 = PERSON_AND_ORGANIZATION_ROLE ( 'classification_officer' ) ;
#196 = DIRECTION ( 'NONE',  ( -2.042810365310288350E-14, -1.000000000000000000, 0.000000000000000000 ) ) ;
#197 = VERTEX_POINT ( 'NONE', #74 ) ;
#198 = PERSON_AND_ORGANIZATION ( #23, #44 ) ;
#199 = CARTESIAN_POINT ( 'NONE',  ( 1.745740669421566678E-13, -6.123233995736766085E-15, 50.00000000000000000 ) ) ;
#200 = EDGE_LOOP ( 'NONE', ( #73, #60 ) ) ;
#201 = ADVANCED_BREP_SHAPE_REPRESENTATION ( '372741', ( #7, #107, #222 ), #194 ) ;
#202 = EDGE_LOOP ( 'NONE', ( #79, #334 ) ) ;
#203 = CIRCLE ( 'NONE', #241, 2.999999999999997335 ) ;
#204 = CC_DESIGN_SECURITY_CLASSIFICATION ( #29, ( #325 ) ) ;
#205 = DIRECTION ( 'NONE',  ( -3.491481338843133355E-15, 1.276467311168695266E-16, -1.000000000000000000 ) ) ;
#206 = ORIENTED_EDGE ( 'NONE', *, *, #69, .T. ) ;
#207 = LINE ( 'NONE', #208, #130 ) ;
#208 = CARTESIAN_POINT ( 'NONE',  ( 1.282749433769085480E-30, 2.999999999999994671, 3.673940397442053459E-16 ) ) ;
#209 = CC_DESIGN_DATE_AND_TIME_ASSIGNMENT ( #53, #171, ( #149 ) ) ;
#210 = DIRECTION ( 'NONE',  ( 0.000000000000000000, -1.000000000000000000, 0.000000000000000000 ) ) ;
#211 = ADVANCED_FACE ( 'NONE', ( #27 ), #280, .F. ) ;
#212 = ADVANCED_FACE ( 'NONE', ( #50 ), #139, .F. ) ;
#213 = DIRECTION ( 'NONE',  ( -2.382254525458723780E-15, -0.7071067811865453523, -0.7071067811865496822 ) ) ;
#214 = AXIS2_PLACEMENT_3D ( 'NONE', #306, #77, #358 ) ;
#215 = CARTESIAN_POINT ( 'NONE',  ( -1.755574420163014978E-30, -2.499999999999997335, -5.028164981528174968E-16 ) ) ;
#216 = PERSON_AND_ORGANIZATION_ROLE ( 'creator' ) ;
#217 = DIRECTION ( 'NONE',  ( 4.275831445896959482E-31, 1.000000000000000000, 1.224646799147353207E-16 ) ) ;
#218 = ADVANCED_FACE ( 'NONE', ( #309 ), #251, .T. ) ;
#219 = CARTESIAN_POINT ( 'NONE',  ( 3.061616997868385113E-16, 2.499999999999997335, 1.354171574315283856E-16 ) ) ;
#220 = VECTOR ( 'NONE', #248, 1000.000000000000114 ) ;
#221 = DIRECTION ( 'NONE',  ( 3.404208188709233130E-15, 0.2588190451025213501, 0.9659258262890680902 ) ) ;
#222 = AXIS2_PLACEMENT_3D ( 'NONE', #153, #42, #90 ) ;
#223 = DIRECTION ( 'NONE',  ( 3.491481338843133355E-15, -1.224646799147353207E-16, 1.000000000000000000 ) ) ;
#224 = ORIENTED_EDGE ( 'NONE', *, *, #308, .T. ) ;
#225 = ORIENTED_EDGE ( 'NONE', *, *, #285, .F. ) ;
#226 = PERSON_AND_ORGANIZATION ( #23, #44 ) ;
#227 = CC_DESIGN_PERSON_AND_ORGANIZATION_ASSIGNMENT ( #80, #2, ( #325 ) ) ;
#228 = DIRECTION ( 'NONE',  ( 0.000000000000000000, 1.000000000000000000, 0.000000000000000000 ) ) ;
#229 = VECTOR ( 'NONE', #268, 1000.000000000000000 ) ;
#230 = ORIENTED_EDGE ( 'NONE', *, *, #157, .F. ) ;
#231 = SECURITY_CLASSIFICATION_LEVEL ( 'unclassified' ) ;
#232 = EDGE_LOOP ( 'NONE', ( #124, #224 ) ) ;
#233 = DIRECTION ( 'NONE',  ( -3.491481338843133355E-15, 1.224646799147353207E-16, -1.000000000000000000 ) ) ;
#234 = EDGE_LOOP ( 'NONE', ( #281, #82, #55, #263 ) ) ;
#235 = VERTEX_POINT ( 'NONE', #166 ) ;
#236 = CIRCLE ( 'NONE', #336, 2.999999999999997335 ) ;
#237 =( NAMED_UNIT ( * ) PLANE_ANGLE_UNIT ( ) SI_UNIT ( $, .RADIAN. ) );
#238 = DIRECTION ( 'NONE',  ( 0.000000000000000000, -1.000000000000000000, 0.000000000000000000 ) ) ;
#239 = EDGE_CURVE ( 'NONE', #235, #345, #164, .T. ) ;
#240 = DIRECTION ( 'NONE',  ( -4.456761796588770537E-31, -1.000000000000000000, -1.276467311168695266E-16 ) ) ;
#241 = AXIS2_PLACEMENT_3D ( 'NONE', #85, #83, #35 ) ;
#242 = LOCAL_TIME ( 9, 9, 2.000000000000000000, #70 ) ;
#243 = PERSON_AND_ORGANIZATION ( #23, #44 ) ;
#244 = LINE ( 'NONE', #352, #110 ) ;
#245 = EDGE_CURVE ( 'NONE', #9, #362, #341, .T. ) ;
#246 = DIRECTION ( 'NONE',  ( 0.000000000000000000, 1.000000000000000000, 0.000000000000000000 ) ) ;
#247 = APPROVAL ( #127, 'UNSPECIFIED' ) ;
#248 = DIRECTION ( 'NONE',  ( -2.468850131082271655E-15, 0.7071067811865455743, -0.7071067811865493491 ) ) ;
#249 = AXIS2_PLACEMENT_3D ( 'NONE', #332, #71, #188 ) ;
#250 = FACE_OUTER_BOUND ( 'NONE', #200, .T. ) ;
#251 = CYLINDRICAL_SURFACE ( 'NONE', #355, 2.999999999999994671 ) ;
#252 = EDGE_CURVE ( 'NONE', #106, #169, #48, .T. ) ;
#253 = ADVANCED_FACE ( 'NONE', ( #250 ), #102, .F. ) ;
#254 = AXIS2_PLACEMENT_3D ( 'NONE', #66, #91, #65 ) ;
#255 = DIRECTION ( 'NONE',  ( -3.491481338843133355E-15, 1.224646799147353207E-16, -1.000000000000000000 ) ) ;
#256 = DATE_TIME_ROLE ( 'classification_date' ) ;
#257 = VERTEX_POINT ( 'NONE', #136 ) ;
#258 = APPROVAL_DATE_TIME ( #284, #296 ) ;
#259 = EDGE_CURVE ( 'NONE', #32, #257, #203, .T. ) ;
#260 = DIRECTION ( 'NONE',  ( -3.491481338843133355E-15, 1.276467311168695266E-16, -1.000000000000000000 ) ) ;
#261 = AXIS2_PLACEMENT_3D ( 'NONE', #354, #347, #129 ) ;
#262 = VERTEX_POINT ( 'NONE', #116 ) ;
#263 = ORIENTED_EDGE ( 'NONE', *, *, #308, .F. ) ;
#264 = DIRECTION ( 'NONE',  ( 3.491481338843133355E-15, -1.276467311168695266E-16, 1.000000000000000000 ) ) ;
#265 = ORIENTED_EDGE ( 'NONE', *, *, #69, .F. ) ;
#266 = CONICAL_SURFACE ( 'NONE', #190, 7.499999999999997335, 0.2617993877991501850 ) ;
#267 = FACE_OUTER_BOUND ( 'NONE', #342, .T. ) ;
#268 = DIRECTION ( 'NONE',  ( 3.491481338843133355E-15, -1.276467311168695266E-16, 1.000000000000000000 ) ) ;
#269 = AXIS2_PLACEMENT_3D ( 'NONE', #339, #100, #357 ) ;
#270 = APPROVAL_DATE_TIME ( #158, #247 ) ;
#271 = CARTESIAN_POINT ( 'NONE',  ( 1.724791781388508004E-13, 2.999999999999991562, 49.39999999999999858 ) ) ;
#272 = CARTESIAN_POINT ( 'NONE',  ( 0.000000000000000000, 0.000000000000000000, 0.000000000000000000 ) ) ;
#273 = DIRECTION ( 'NONE',  ( 3.491481338843133355E-15, -1.276467311168695266E-16, 1.000000000000000000 ) ) ;
#274 = AXIS2_PLACEMENT_3D ( 'NONE', #304, #159, #240 ) ;
#275 = DIRECTION ( 'NONE',  ( 3.491481338843133355E-15, -1.276467311168695266E-16, 1.000000000000000000 ) ) ;
#276 = ORIENTED_EDGE ( 'NONE', *, *, #360, .T. ) ;
#277 = ORIENTED_EDGE ( 'NONE', *, *, #285, .T. ) ;
#278 = DIRECTION ( 'NONE',  ( -4.456761796588771413E-31, -1.000000000000000000, -1.276467311168695019E-16 ) ) ;
#279 = CLOSED_SHELL ( 'NONE', ( #19, #320, #31, #218, #350, #212, #45, #253 ) ) ;
#280 = PLANE ( 'NONE',  #101 ) ;
#281 = ORIENTED_EDGE ( 'NONE', *, *, #160, .F. ) ;
#282 = DIRECTION ( 'NONE',  ( 0.000000000000000000, -1.000000000000000000, 0.000000000000000000 ) ) ;
#283 = ORIENTED_EDGE ( 'NONE', *, *, #189, .T. ) ;
#284 = DATE_AND_TIME ( #56, #168 ) ;
#285 = EDGE_CURVE ( 'NONE', #169, #180, #75, .T. ) ;
#286 = EDGE_LOOP ( 'NONE', ( #109, #37, #147, #57 ) ) ;
#287 = SHAPE_DEFINITION_REPRESENTATION ( #99, #201 ) ;
#288 = CLOSED_SHELL ( 'NONE', ( #138, #154, #6, #211 ) ) ;
#289 = ORIENTED_EDGE ( 'NONE', *, *, #189, .F. ) ;
#290 = EDGE_LOOP ( 'NONE', ( #117, #114, #277, #12 ) ) ;
#291 = CARTESIAN_POINT ( 'NONE',  ( 1.745740669421566678E-13, 2.399999999999991473, 50.00000000000000000 ) ) ;
#292 = EDGE_CURVE ( 'NONE', #180, #169, #122, .T. ) ;
#293 = APPLICATION_PROTOCOL_DEFINITION ( 'international standard', 'config_control_design', 1994, #338 ) ;
#294 = ORIENTED_EDGE ( 'NONE', *, *, #292, .T. ) ;
#295 = AXIS2_PLACEMENT_3D ( 'NONE', #21, #167, #278 ) ;
#296 = APPROVAL ( #333, 'UNSPECIFIED' ) ;
#297 = FACE_OUTER_BOUND ( 'NONE', #286, .T. ) ;
#298 = LINE ( 'NONE', #219, #67 ) ;
#299 = COORDINATED_UNIVERSAL_TIME_OFFSET ( 1, 0, .AHEAD. ) ;
#300 = CARTESIAN_POINT ( 'NONE',  ( 1.745740669421566678E-13, 2.399999999999991473, 50.00000000000000000 ) ) ;
#301 = AXIS2_PLACEMENT_3D ( 'NONE', #344, #205, #5 ) ;
#302 = APPROVAL_PERSON_ORGANIZATION ( #39, #247, #14 ) ;
#303 = CYLINDRICAL_SURFACE ( 'NONE', #274, 2.499999999999997335 ) ;
#304 = CARTESIAN_POINT ( 'NONE',  ( -6.413839710158237013E-31, 0.000000000000000000, -1.836996703606440502E-16 ) ) ;
#305 = APPROVAL_STATUS ( 'not_yet_approved' ) ;
#306 = CARTESIAN_POINT ( 'NONE',  ( -3.252106172095669792E-30, 9.544663782522175102E-32, -9.314402273658498283E-16 ) ) ;
#307 = CIRCLE ( 'NONE', #269, 2.399999999999997691 ) ;
#308 = EDGE_CURVE ( 'NONE', #345, #235, #43, .T. ) ;
#309 = FACE_OUTER_BOUND ( 'NONE', #87, .T. ) ;
#310 = CARTESIAN_POINT ( 'NONE',  ( 4.189777606611760026E-14, 2.249639673992779296E-32, 12.00000000000000000 ) ) ;
#311 = AXIS2_PLACEMENT_3D ( 'NONE', #199, #52, #228 ) ;
#312 = CALENDAR_DATE ( 2023, 31, 3 ) ;
#313 = FACE_OUTER_BOUND ( 'NONE', #4, .T. ) ;
#314 = ORIENTED_EDGE ( 'NONE', *, *, #259, .F. ) ;
#315 = DATE_AND_TIME ( #312, #62 ) ;
#316 = EDGE_CURVE ( 'NONE', #257, #32, #236, .T. ) ;
#317 = DIRECTION ( 'NONE',  ( 0.000000000000000000, 1.000000000000000000, 0.000000000000000000 ) ) ;
#318 = CIRCLE ( 'NONE', #254, 2.499999999999996891 ) ;
#319 = ORIENTED_EDGE ( 'NONE', *, *, #157, .T. ) ;
#320 = ADVANCED_FACE ( 'NONE', ( #313 ), #331, .T. ) ;
#321 = DIRECTION ( 'NONE',  ( -3.491481338843133355E-15, 1.224646799147353207E-16, -1.000000000000000000 ) ) ;
#322 = ORIENTED_EDGE ( 'NONE', *, *, #259, .T. ) ;
#323 = LINE ( 'NONE', #93, #181 ) ;
#324 = AXIS2_PLACEMENT_3D ( 'NONE', #63, #15, #238 ) ;
#325 = PRODUCT_DEFINITION_FORMATION_WITH_SPECIFIED_SOURCE ( 'ANY', '', #33, .NOT_KNOWN. ) ;
#326 = CALENDAR_DATE ( 2023, 31, 3 ) ;
#327 = DIRECTION ( 'NONE',  ( -3.491481338843133355E-15, 1.224646799147353207E-16, -1.000000000000000000 ) ) ;
#328 = CARTESIAN_POINT ( 'NONE',  ( 1.070497048173233081E-13, -3.913681203143628758E-15, 30.66025403784432868 ) ) ;
#329 = CYLINDRICAL_SURFACE ( 'NONE', #261, 2.499999999999997335 ) ;
#330 = AXIS2_PLACEMENT_3D ( 'NONE', #30, #58, #8 ) ;
#331 = CONICAL_SURFACE ( 'NONE', #311, 2.399999999999997691, 0.7853981633974453924 ) ;
#332 = CARTESIAN_POINT ( 'NONE',  ( 4.189777606611760026E-14, 2.249639673992779296E-32, 12.00000000000000000 ) ) ;
#333 = APPROVAL_STATUS ( 'not_yet_approved' ) ;
#334 = ORIENTED_EDGE ( 'NONE', *, *, #173, .F. ) ;
#335 = CARTESIAN_POINT ( 'NONE',  ( 1.104460735400444876E-13, 2.999999999999993339, 13.86602540378442328 ) ) ;
#336 = AXIS2_PLACEMENT_3D ( 'NONE', #148, #233, #317 ) ;
#337 = APPROVAL_PERSON_ORGANIZATION ( #340, #353, #175 ) ;
#338 = APPLICATION_CONTEXT ( 'configuration controlled 3d designs of mechanical parts and assemblies' ) ;
#339 = CARTESIAN_POINT ( 'NONE',  ( 1.745740669421566678E-13, -6.123233995736766085E-15, 50.00000000000000000 ) ) ;
#340 = PERSON_AND_ORGANIZATION ( #23, #44 ) ;
#341 = CIRCLE ( 'NONE', #214, 2.499999999999997780 ) ;
#342 = EDGE_LOOP ( 'NONE', ( #76, #1, #120, #294 ) ) ;
#343 = VERTEX_POINT ( 'NONE', #291 ) ;
#344 = CARTESIAN_POINT ( 'NONE',  ( 4.841296894123813697E-14, -1.769952816376552796E-15, 13.86602540378442328 ) ) ;
#345 = VERTEX_POINT ( 'NONE', #36 ) ;
#346 = CC_DESIGN_APPROVAL ( #296, ( #325 ) ) ;
#347 = DIRECTION ( 'NONE',  ( 3.491481338843133355E-15, -1.276467311168695266E-16, 1.000000000000000000 ) ) ;
#348 = CYLINDRICAL_SURFACE ( 'NONE', #3, 2.999999999999994671 ) ;
#349 = AXIS2_PLACEMENT_3D ( 'NONE', #25, #255, #46 ) ;
#350 = ADVANCED_FACE ( 'NONE', ( #172 ), #121, .T. ) ;
#351 = CARTESIAN_POINT ( 'NONE',  ( 4.549215037344339659E-14, 2.499999999999995115, 12.00000000000000000 ) ) ;
#352 = CARTESIAN_POINT ( 'NONE',  ( 1.070497048173233081E-13, -7.500000000000001776, 30.66025403784432868 ) ) ;
#353 = APPROVAL ( #305, 'UNSPECIFIED' ) ;
#354 = CARTESIAN_POINT ( 'NONE',  ( -6.413839710158237013E-31, 0.000000000000000000, -1.836996703606440502E-16 ) ) ;
#355 = AXIS2_PLACEMENT_3D ( 'NONE', #361, #162, #217 ) ;
#356 = DESIGN_CONTEXT ( 'detailed design', #338, 'design' ) ;
#357 = DIRECTION ( 'NONE',  ( 0.000000000000000000, 1.000000000000000000, 0.000000000000000000 ) ) ;
#358 = DIRECTION ( 'NONE',  ( -4.456761796588771413E-31, -1.000000000000000000, -1.276467311168695019E-16 ) ) ;
#359 = AXIS2_PLACEMENT_3D ( 'NONE', #143, #260, #196 ) ;
#360 = EDGE_CURVE ( 'NONE', #257, #180, #10, .T. ) ;
#361 = CARTESIAN_POINT ( 'NONE',  ( 0.000000000000000000, 0.000000000000000000, 0.000000000000000000 ) ) ;
#362 = VERTEX_POINT ( 'NONE', #112 ) ;
#363 = CALENDAR_DATE ( 2023, 31, 3 ) ;
ENDSEC;
END-ISO-10303-21;
