ISO-10303-21;
HEADER;
FILE_DESCRIPTION (( 'STEP AP203' ),
    '1' );
FILE_NAME ('372740.step',
    '2023-03-31T07:09:01',
    ( '' ),
    ( '' ),
    'SwSTEP 2.0',
    'SolidWorks 2022',
    '' );
FILE_SCHEMA (( 'CONFIG_CONTROL_DESIGN' ));
ENDSEC;

DATA;
#1 = CARTESIAN_POINT ( 'NONE',  ( 0.000000000000000000, 0.000000000000000000, 0.000000000000000000 ) ) ;
#2 = VECTOR ( 'NONE', #279, 1000.000000000000000 ) ;
#3 = CARTESIAN_POINT ( 'NONE',  ( 3.061616997868370815E-16, -2.499999999999998668, -3.061616997868392016E-16 ) ) ;
#4 = SECURITY_CLASSIFICATION_LEVEL ( 'unclassified' ) ;
#5 = EDGE_CURVE ( 'NONE', #97, #236, #89, .T. ) ;
#6 = DIRECTION ( 'NONE',  ( 0.000000000000000000, 1.000000000000000000, 0.000000000000000000 ) ) ;
#7 = FACE_OUTER_BOUND ( 'NONE', #195, .T. ) ;
#8 = CYLINDRICAL_SURFACE ( 'NONE', #106, 2.499999999999998668 ) ;
#9 = DIRECTION ( 'NONE',  ( -3.491481338843133355E-15, 1.224646799147353207E-16, -1.000000000000000000 ) ) ;
#10 = EDGE_CURVE ( 'NONE', #247, #283, #153, .T. ) ;
#11 = FACE_OUTER_BOUND ( 'NONE', #139, .T. ) ;
#12 = AXIS2_PLACEMENT_3D ( 'NONE', #144, #9, #301 ) ;
#13 = PLANE ( 'NONE',  #105 ) ;
#14 = EDGE_CURVE ( 'NONE', #87, #208, #77, .T. ) ;
#15 = ORIENTED_EDGE ( 'NONE', *, *, #14, .T. ) ;
#16 = DIRECTION ( 'NONE',  ( 0.000000000000000000, 0.000000000000000000, 1.000000000000000000 ) ) ;
#17 = CIRCLE ( 'NONE', #238, 2.499999999999992895 ) ;
#18 = ORIENTED_EDGE ( 'NONE', *, *, #71, .T. ) ;
#19 = EDGE_CURVE ( 'NONE', #258, #66, #98, .T. ) ;
#20 = MECHANICAL_CONTEXT ( 'NONE', #33, 'mechanical' ) ;
#21 = ORIENTED_EDGE ( 'NONE', *, *, #193, .F. ) ;
#22 = PERSON_AND_ORGANIZATION ( #290, #277 ) ;
#23 = ORIENTED_EDGE ( 'NONE', *, *, #26, .T. ) ;
#24 = CIRCLE ( 'NONE', #226, 2.499999999999992895 ) ;
#25 = DIRECTION ( 'NONE',  ( -4.275831445896958607E-31, -1.000000000000000000, -1.224646799147353207E-16 ) ) ;
#26 = EDGE_CURVE ( 'NONE', #87, #97, #30, .T. ) ;
#27 = APPROVAL_PERSON_ORGANIZATION ( #198, #147, #294 ) ;
#28 = FACE_OUTER_BOUND ( 'NONE', #292, .T. ) ;
#29 = PERSON_AND_ORGANIZATION ( #290, #277 ) ;
#30 = LINE ( 'NONE', #293, #244 ) ;
#31 = AXIS2_PLACEMENT_3D ( 'NONE', #243, #16, #194 ) ;
#32 = CARTESIAN_POINT ( 'NONE',  ( 2.438063689141167656E-13, -2.000000000000010214, 70.00000000000000000 ) ) ;
#33 = APPLICATION_CONTEXT ( 'configuration controlled 3d designs of mechanical parts and assemblies' ) ;
#34 =( LENGTH_UNIT ( ) NAMED_UNIT ( * ) SI_UNIT ( .MILLI., .METRE. ) );
#35 = ORIENTED_EDGE ( 'NONE', *, *, #212, .T. ) ;
#36 = ADVANCED_FACE ( 'NONE', ( #295 ), #103, .T. ) ;
#37 = VECTOR ( 'NONE', #218, 1000.000000000000000 ) ;
#38 = SECURITY_CLASSIFICATION ( '', '', #4 ) ;
#39 = ORIENTED_EDGE ( 'NONE', *, *, #69, .F. ) ;
#40 = ORIENTED_EDGE ( 'NONE', *, *, #5, .T. ) ;
#41 = EDGE_CURVE ( 'NONE', #247, #258, #187, .T. ) ;
#42 = EDGE_LOOP ( 'NONE', ( #248, #40, #63, #217 ) ) ;
#43 = PERSON_AND_ORGANIZATION ( #290, #277 ) ;
#44 = APPROVAL_PERSON_ORGANIZATION ( #43, #254, #240 ) ;
#45 = PERSON_AND_ORGANIZATION ( #290, #277 ) ;
#46 = ORIENTED_EDGE ( 'NONE', *, *, #26, .F. ) ;
#47 = DIRECTION ( 'NONE',  ( 0.000000000000000000, 1.000000000000000000, 0.000000000000000000 ) ) ;
#48 = AXIS2_PLACEMENT_3D ( 'NONE', #276, #230, #79 ) ;
#49 = VECTOR ( 'NONE', #210, 999.9999999999998863 ) ;
#50 = COORDINATED_UNIVERSAL_TIME_OFFSET ( 1, 0, .AHEAD. ) ;
#51 = EDGE_LOOP ( 'NONE', ( #196, #61, #312, #222 ) ) ;
#52 = DIRECTION ( 'NONE',  ( 4.275831445896958607E-31, 1.000000000000000000, 1.224646799147352961E-16 ) ) ;
#53 = CARTESIAN_POINT ( 'NONE',  ( 1.047444401652940007E-13, 1.874699728327314073E-32, 30.00000000000000000 ) ) ;
#54 = CARTESIAN_POINT ( 'NONE',  ( 1.047444401652940007E-13, -3.673940397442059178E-15, 30.00000000000000000 ) ) ;
#55 = PERSON_AND_ORGANIZATION_ROLE ( 'creator' ) ;
#56 = CARTESIAN_POINT ( 'NONE',  ( -1.282745515301426305E-30, 4.499265603851169331E-32, -3.673929174504626980E-16 ) ) ;
#57 = AXIS2_PLACEMENT_3D ( 'NONE', #1, #249, #227 ) ;
#58 = DIRECTION ( 'NONE',  ( 0.000000000000000000, 1.000000000000000000, 0.000000000000000000 ) ) ;
#59 = ORIENTED_EDGE ( 'NONE', *, *, #5, .F. ) ;
#60 = DIRECTION ( 'NONE',  ( 4.275831445896959482E-31, 1.000000000000000000, 1.224646799147353207E-16 ) ) ;
#61 = ORIENTED_EDGE ( 'NONE', *, *, #69, .T. ) ;
#62 = DIRECTION ( 'NONE',  ( -3.491481338843133355E-15, 1.224646799147353207E-16, -1.000000000000000000 ) ) ;
#63 = ORIENTED_EDGE ( 'NONE', *, *, #143, .T. ) ;
#64 = DIRECTION ( 'NONE',  ( 3.491481338843133355E-15, -1.224646799147353207E-16, 1.000000000000000000 ) ) ;
#65 = APPROVAL_DATE_TIME ( #67, #135 ) ;
#66 = VERTEX_POINT ( 'NONE', #74 ) ;
#67 = DATE_AND_TIME ( #190, #100 ) ;
#68 = ORIENTED_EDGE ( 'NONE', *, *, #71, .F. ) ;
#69 = EDGE_CURVE ( 'NONE', #258, #247, #174, .T. ) ;
#70 = APPROVAL_ROLE ( '' ) ;
#71 = EDGE_CURVE ( 'NONE', #283, #66, #17, .T. ) ;
#72 = PERSON_AND_ORGANIZATION_ROLE ( 'design_supplier' ) ;
#73 = DIRECTION ( 'NONE',  ( 0.000000000000000000, 1.000000000000000000, 0.000000000000000000 ) ) ;
#74 = CARTESIAN_POINT ( 'NONE',  ( 5.267838178243381296E-14, -2.499999999999992895, -6.735546172374839785E-16 ) ) ;
#75 = SHAPE_DEFINITION_REPRESENTATION ( #171, #219 ) ;
#76 = DIRECTION ( 'NONE',  ( 0.000000000000000000, 1.000000000000000000, 0.000000000000000000 ) ) ;
#77 = CIRCLE ( 'NONE', #127, 2.000000000000001332 ) ;
#78 = APPROVAL_STATUS ( 'not_yet_approved' ) ;
#79 = DIRECTION ( 'NONE',  ( 4.275831445896958607E-31, 1.000000000000000000, 1.224646799147353207E-16 ) ) ;
#80 = CARTESIAN_POINT ( 'NONE',  ( 3.061616997868365885E-16, -2.499999999999994227, -3.061616997868386592E-16 ) ) ;
#81 = ORIENTED_EDGE ( 'NONE', *, *, #19, .T. ) ;
#82 = DIRECTION ( 'NONE',  ( -3.491481338843133355E-15, 1.224646799147353207E-16, -1.000000000000000000 ) ) ;
#83 = ORIENTED_EDGE ( 'NONE', *, *, #224, .T. ) ;
#84 = FACE_OUTER_BOUND ( 'NONE', #42, .T. ) ;
#85 = EDGE_LOOP ( 'NONE', ( #163, #192 ) ) ;
#86 = FACE_OUTER_BOUND ( 'NONE', #305, .T. ) ;
#87 = VERTEX_POINT ( 'NONE', #32 ) ;
#88 = ADVANCED_FACE ( 'NONE', ( #7 ), #203, .F. ) ;
#89 = CIRCLE ( 'NONE', #298, 2.500000000000001332 ) ;
#90 = LOCAL_TIME ( 9, 9, 1.000000000000000000, #202 ) ;
#91 = DIRECTION ( 'NONE',  ( -4.275831445896958607E-31, -1.000000000000000000, -1.224646799147353207E-16 ) ) ;
#92 = ADVANCED_FACE ( 'NONE', ( #204 ), #284, .T. ) ;
#93 = CC_DESIGN_PERSON_AND_ORGANIZATION_ASSIGNMENT ( #130, #72, ( #152 ) ) ;
#94 =( GEOMETRIC_REPRESENTATION_CONTEXT ( 3 ) GLOBAL_UNCERTAINTY_ASSIGNED_CONTEXT ( ( #185 ) ) GLOBAL_UNIT_ASSIGNED_CONTEXT ( ( #34, #125, #291 ) ) REPRESENTATION_CONTEXT ( 'NONE', 'WORKASPACE' ) );
#95 = EDGE_LOOP ( 'NONE', ( #46, #15, #83, #59 ) ) ;
#96 = ORIENTED_EDGE ( 'NONE', *, *, #143, .F. ) ;
#97 = VERTEX_POINT ( 'NONE', #108 ) ;
#98 = LINE ( 'NONE', #80, #165 ) ;
#99 = AXIS2_PLACEMENT_3D ( 'NONE', #159, #179, #25 ) ;
#100 = LOCAL_TIME ( 9, 9, 1.000000000000000000, #269 ) ;
#101 = DIRECTION ( 'NONE',  ( -3.491481338843133355E-15, 1.224646799147353207E-16, -1.000000000000000000 ) ) ;
#102 = DATE_TIME_ROLE ( 'classification_date' ) ;
#103 = CYLINDRICAL_SURFACE ( 'NONE', #48, 2.499999999999994227 ) ;
#104 = LINE ( 'NONE', #3, #289 ) ;
#105 = AXIS2_PLACEMENT_3D ( 'NONE', #164, #207, #259 ) ;
#106 = AXIS2_PLACEMENT_3D ( 'NONE', #186, #181, #162 ) ;
#107 = CALENDAR_DATE ( 2023, 31, 3 ) ;
#108 = CARTESIAN_POINT ( 'NONE',  ( 1.740073583072325614E-13, -2.500000000000010214, 69.50000000000000000 ) ) ;
#109 = ADVANCED_FACE ( 'NONE', ( #223 ), #253, .T. ) ;
#110 = CC_DESIGN_DATE_AND_TIME_ASSIGNMENT ( #288, #264, ( #184 ) ) ;
#111 = EDGE_CURVE ( 'NONE', #97, #256, #104, .T. ) ;
#112 = DIRECTION ( 'NONE',  ( -3.491481338843133355E-15, 1.224646799147353207E-16, -1.000000000000000000 ) ) ;
#113 = MANIFOLD_SOLID_BREP ( 'Corps-Déplacer/Copier1[2]', #114 ) ;
#114 = CLOSED_SHELL ( 'NONE', ( #109, #88, #36, #115 ) ) ;
#115 = ADVANCED_FACE ( 'NONE', ( #201 ), #176, .T. ) ;
#116 = DIRECTION ( 'NONE',  ( 0.000000000000000000, 1.000000000000000000, 0.000000000000000000 ) ) ;
#117 = MANIFOLD_SOLID_BREP ( 'Corps-Déplacer/Copier1[1]', #141 ) ;
#118 = LINE ( 'NONE', #211, #2 ) ;
#119 = FACE_OUTER_BOUND ( 'NONE', #85, .T. ) ;
#120 = PERSON_AND_ORGANIZATION_ROLE ( 'creator' ) ;
#121 = ORIENTED_EDGE ( 'NONE', *, *, #41, .T. ) ;
#122 = EDGE_LOOP ( 'NONE', ( #121, #81, #68, #242 ) ) ;
#123 = ADVANCED_FACE ( 'NONE', ( #28 ), #133, .F. ) ;
#124 = CALENDAR_DATE ( 2023, 31, 3 ) ;
#125 =( NAMED_UNIT ( * ) PLANE_ANGLE_UNIT ( ) SI_UNIT ( $, .RADIAN. ) );
#126 = EDGE_CURVE ( 'NONE', #66, #283, #24, .T. ) ;
#127 = AXIS2_PLACEMENT_3D ( 'NONE', #155, #251, #76 ) ;
#128 = ORIENTED_EDGE ( 'NONE', *, *, #111, .T. ) ;
#129 = DESIGN_CONTEXT ( 'detailed design', #280, 'design' ) ;
#130 = PERSON_AND_ORGANIZATION ( #290, #277 ) ;
#131 = DIRECTION ( 'NONE',  ( -3.491481338843133355E-15, 1.224646799147353207E-16, -1.000000000000000000 ) ) ;
#132 = AXIS2_PLACEMENT_3D ( 'NONE', #232, #64, #91 ) ;
#133 = PLANE ( 'NONE',  #132 ) ;
#134 = DATE_AND_TIME ( #107, #90 ) ;
#135 = APPROVAL ( #235, 'UNSPECIFIED' ) ;
#136 = DIRECTION ( 'NONE',  ( -3.491481338843133355E-15, 1.224646799147353207E-16, -1.000000000000000000 ) ) ;
#137 = EDGE_CURVE ( 'NONE', #208, #87, #157, .T. ) ;
#138 = ADVANCED_FACE ( 'NONE', ( #84 ), #8, .T. ) ;
#139 = EDGE_LOOP ( 'NONE', ( #286, #23, #278, #303 ) ) ;
#140 = DIRECTION ( 'NONE',  ( 0.000000000000000000, 1.000000000000000000, 0.000000000000000000 ) ) ;
#141 = CLOSED_SHELL ( 'NONE', ( #169, #225, #123, #138, #92, #237 ) ) ;
#142 = AXIS2_PLACEMENT_3D ( 'NONE', #53, #156, #250 ) ;
#143 = EDGE_CURVE ( 'NONE', #236, #263, #118, .T. ) ;
#144 = CARTESIAN_POINT ( 'NONE',  ( 2.444036937190193601E-13, -8.572527594031472993E-15, 70.00000000000000000 ) ) ;
#145 = EDGE_LOOP ( 'NONE', ( #170, #39 ) ) ;
#146 = PERSON_AND_ORGANIZATION ( #290, #277 ) ;
#147 = APPROVAL ( #78, 'UNSPECIFIED' ) ;
#148 = LOCAL_TIME ( 9, 9, 1.000000000000000000, #246 ) ;
#149 = APPROVAL_STATUS ( 'not_yet_approved' ) ;
#150 = DIRECTION ( 'NONE',  ( -3.491481338843133355E-15, 1.224646799147353207E-16, -1.000000000000000000 ) ) ;
#151 = APPROVAL_DATE_TIME ( #173, #254 ) ;
#152 = PRODUCT_DEFINITION_FORMATION_WITH_SPECIFIED_SOURCE ( 'ANY', '', #313, .NOT_KNOWN. ) ;
#153 = LINE ( 'NONE', #241, #37 ) ;
#154 = PERSON_AND_ORGANIZATION_ROLE ( 'classification_officer' ) ;
#155 = CARTESIAN_POINT ( 'NONE',  ( 2.444036937190193601E-13, -8.572527594031472993E-15, 70.00000000000000000 ) ) ;
#156 = DIRECTION ( 'NONE',  ( 3.491481338843133355E-15, -1.224646799147353207E-16, 1.000000000000000000 ) ) ;
#157 = CIRCLE ( 'NONE', #12, 2.000000000000001332 ) ;
#158 = EDGE_CURVE ( 'NONE', #236, #97, #199, .T. ) ;
#159 = CARTESIAN_POINT ( 'NONE',  ( -6.413727576507131527E-31, 2.249632801925584666E-32, -1.836964587252313490E-16 ) ) ;
#160 = CYLINDRICAL_SURFACE ( 'NONE', #245, 2.499999999999998668 ) ;
#161 = ORIENTED_EDGE ( 'NONE', *, *, #126, .T. ) ;
#162 = DIRECTION ( 'NONE',  ( 4.275831445896959482E-31, 1.000000000000000000, 1.224646799147353207E-16 ) ) ;
#163 = ORIENTED_EDGE ( 'NONE', *, *, #137, .F. ) ;
#164 = CARTESIAN_POINT ( 'NONE',  ( 2.444036937190193601E-13, 1.499759782661845565E-32, 70.00000000000000000 ) ) ;
#165 = VECTOR ( 'NONE', #177, 1000.000000000000000 ) ;
#166 = AXIS2_PLACEMENT_3D ( 'NONE', #297, #131, #6 ) ;
#167 = CARTESIAN_POINT ( 'NONE',  ( 2.426579530495977493E-13, 2.499999999999992895, 69.50000000000000000 ) ) ;
#168 = CARTESIAN_POINT ( 'NONE',  ( 5.267838178243376247E-14, -2.499999999999999556, 30.00000000000000000 ) ) ;
#169 = ADVANCED_FACE ( 'NONE', ( #11 ), #220, .T. ) ;
#170 = ORIENTED_EDGE ( 'NONE', *, *, #41, .F. ) ;
#171 = PRODUCT_DEFINITION_SHAPE ( 'NONE', 'NONE',  #184 ) ;
#172 = CC_DESIGN_APPROVAL ( #254, ( #152 ) ) ;
#173 = DATE_AND_TIME ( #124, #178 ) ;
#174 = CIRCLE ( 'NONE', #215, 2.499999999999996003 ) ;
#175 = DIRECTION ( 'NONE',  ( -2.382254525458717469E-15, -0.7071067811865471286, -0.7071067811865479058 ) ) ;
#176 = PLANE ( 'NONE',  #142 ) ;
#177 = DIRECTION ( 'NONE',  ( -3.491481338843133355E-15, 1.224646799147353207E-16, -1.000000000000000000 ) ) ;
#178 = LOCAL_TIME ( 9, 9, 1.000000000000000000, #191 ) ;
#179 = DIRECTION ( 'NONE',  ( 3.491481338843133355E-15, -1.224646799147353207E-16, 1.000000000000000000 ) ) ;
#180 = CARTESIAN_POINT ( 'NONE',  ( 1.047444401652940007E-13, -3.673940397442059178E-15, 30.00000000000000000 ) ) ;
#181 = DIRECTION ( 'NONE',  ( -3.491481338843133355E-15, 1.224646799147353207E-16, -1.000000000000000000 ) ) ;
#182 = CC_DESIGN_PERSON_AND_ORGANIZATION_ASSIGNMENT ( #273, #154, ( #38 ) ) ;
#183 = CARTESIAN_POINT ( 'NONE',  ( 2.444036937190193601E-13, -8.572527594031472993E-15, 70.00000000000000000 ) ) ;
#184 = PRODUCT_DEFINITION ( 'UNKNOWN', '', #152, #129 ) ;
#185 = UNCERTAINTY_MEASURE_WITH_UNIT (LENGTH_MEASURE( 1.000000000000000082E-05 ), #34, 'distance_accuracy_value', 'NONE');
#186 = CARTESIAN_POINT ( 'NONE',  ( 0.000000000000000000, 0.000000000000000000, 0.000000000000000000 ) ) ;
#187 = CIRCLE ( 'NONE', #308, 2.499999999999996003 ) ;
#188 = LOCAL_TIME ( 9, 9, 1.000000000000000000, #50 ) ;
#189 = CARTESIAN_POINT ( 'NONE',  ( 1.740073583072326623E-13, -2.499999999999999556, 30.00000000000000000 ) ) ;
#190 = CALENDAR_DATE ( 2023, 31, 3 ) ;
#191 = COORDINATED_UNIVERSAL_TIME_OFFSET ( 1, 0, .AHEAD. ) ;
#192 = ORIENTED_EDGE ( 'NONE', *, *, #14, .F. ) ;
#193 = EDGE_CURVE ( 'NONE', #263, #256, #266, .T. ) ;
#194 = DIRECTION ( 'NONE',  ( 1.000000000000000000, 0.000000000000000000, 0.000000000000000000 ) ) ;
#195 = EDGE_LOOP ( 'NONE', ( #18, #161 ) ) ;
#196 = ORIENTED_EDGE ( 'NONE', *, *, #19, .F. ) ;
#197 = CC_DESIGN_PERSON_AND_ORGANIZATION_ASSIGNMENT ( #29, #55, ( #152 ) ) ;
#198 = PERSON_AND_ORGANIZATION ( #290, #277 ) ;
#199 = CIRCLE ( 'NONE', #231, 2.500000000000001332 ) ;
#200 = DIRECTION ( 'NONE',  ( -3.491481338843133355E-15, 1.224646799147353207E-16, -1.000000000000000000 ) ) ;
#201 = FACE_OUTER_BOUND ( 'NONE', #145, .T. ) ;
#202 = COORDINATED_UNIVERSAL_TIME_OFFSET ( 1, 0, .AHEAD. ) ;
#203 = PLANE ( 'NONE',  #99 ) ;
#204 = FACE_OUTER_BOUND ( 'NONE', #95, .T. ) ;
#205 = AXIS2_PLACEMENT_3D ( 'NONE', #180, #285, #116 ) ;
#206 = DIRECTION ( 'NONE',  ( 4.275831445896958607E-31, 1.000000000000000000, 1.224646799147352961E-16 ) ) ;
#207 = DIRECTION ( 'NONE',  ( -3.491481338843133355E-15, 1.224646799147353207E-16, -1.000000000000000000 ) ) ;
#208 = VERTEX_POINT ( 'NONE', #281 ) ;
#209 = CC_DESIGN_SECURITY_CLASSIFICATION ( #38, ( #152 ) ) ;
#210 = DIRECTION ( 'NONE',  ( -2.468850131082266527E-15, 0.7071067811865473507, -0.7071067811865477948 ) ) ;
#211 = CARTESIAN_POINT ( 'NONE',  ( 1.068957861474239214E-30, 2.499999999999998668, 3.061616997868381662E-16 ) ) ;
#212 = EDGE_CURVE ( 'NONE', #256, #263, #239, .T. ) ;
#213 = CC_DESIGN_DATE_AND_TIME_ASSIGNMENT ( #229, #102, ( #38 ) ) ;
#214 = LINE ( 'NONE', #282, #49 ) ;
#215 = AXIS2_PLACEMENT_3D ( 'NONE', #54, #200, #73 ) ;
#216 = CALENDAR_DATE ( 2023, 31, 3 ) ;
#217 = ORIENTED_EDGE ( 'NONE', *, *, #212, .F. ) ;
#218 = DIRECTION ( 'NONE',  ( -3.491481338843133355E-15, 1.224646799147353207E-16, -1.000000000000000000 ) ) ;
#219 = ADVANCED_BREP_SHAPE_REPRESENTATION ( '372740', ( #117, #113, #31 ), #94 ) ;
#220 = CONICAL_SURFACE ( 'NONE', #299, 2.000000000000001332, 0.7853981633974479459 ) ;
#221 = PERSON_AND_ORGANIZATION_ROLE ( 'design_owner' ) ;
#222 = ORIENTED_EDGE ( 'NONE', *, *, #126, .F. ) ;
#223 = FACE_OUTER_BOUND ( 'NONE', #122, .T. ) ;
#224 = EDGE_CURVE ( 'NONE', #208, #236, #214, .T. ) ;
#225 = ADVANCED_FACE ( 'NONE', ( #86 ), #160, .T. ) ;
#226 = AXIS2_PLACEMENT_3D ( 'NONE', #234, #233, #206 ) ;
#227 = DIRECTION ( 'NONE',  ( 4.275831445896958607E-31, 1.000000000000000000, 1.224646799147353207E-16 ) ) ;
#228 = DIRECTION ( 'NONE',  ( -3.491481338843133355E-15, 1.224646799147353207E-16, -1.000000000000000000 ) ) ;
#229 = DATE_AND_TIME ( #252, #188 ) ;
#230 = DIRECTION ( 'NONE',  ( -3.491481338843133355E-15, 1.224646799147353207E-16, -1.000000000000000000 ) ) ;
#231 = AXIS2_PLACEMENT_3D ( 'NONE', #257, #62, #140 ) ;
#232 = CARTESIAN_POINT ( 'NONE',  ( 1.047444401652940007E-13, 1.874699728327314073E-32, 30.00000000000000000 ) ) ;
#233 = DIRECTION ( 'NONE',  ( -3.491481338843133355E-15, 1.224646799147353207E-16, -1.000000000000000000 ) ) ;
#234 = CARTESIAN_POINT ( 'NONE',  ( -1.282745515301426305E-30, 4.499265603851169331E-32, -3.673929174504626980E-16 ) ) ;
#235 = APPROVAL_STATUS ( 'not_yet_approved' ) ;
#236 = VERTEX_POINT ( 'NONE', #167 ) ;
#237 = ADVANCED_FACE ( 'NONE', ( #119 ), #13, .F. ) ;
#238 = AXIS2_PLACEMENT_3D ( 'NONE', #56, #228, #52 ) ;
#239 = CIRCLE ( 'NONE', #205, 2.499999999999996003 ) ;
#240 = APPROVAL_ROLE ( '' ) ;
#241 = CARTESIAN_POINT ( 'NONE',  ( 1.068957861474237287E-30, 2.499999999999994227, 3.061616997868376239E-16 ) ) ;
#242 = ORIENTED_EDGE ( 'NONE', *, *, #10, .F. ) ;
#243 = CARTESIAN_POINT ( 'NONE',  ( 0.000000000000000000, 0.000000000000000000, 0.000000000000000000 ) ) ;
#244 = VECTOR ( 'NONE', #175, 1000.000000000000000 ) ;
#245 = AXIS2_PLACEMENT_3D ( 'NONE', #304, #261, #60 ) ;
#246 = COORDINATED_UNIVERSAL_TIME_OFFSET ( 1, 0, .AHEAD. ) ;
#247 = VERTEX_POINT ( 'NONE', #307 ) ;
#248 = ORIENTED_EDGE ( 'NONE', *, *, #111, .F. ) ;
#249 = DIRECTION ( 'NONE',  ( -3.491481338843133355E-15, 1.224646799147353207E-16, -1.000000000000000000 ) ) ;
#250 = DIRECTION ( 'NONE',  ( -4.275831445896958607E-31, -1.000000000000000000, -1.224646799147353207E-16 ) ) ;
#251 = DIRECTION ( 'NONE',  ( -3.491481338843133355E-15, 1.224646799147353207E-16, -1.000000000000000000 ) ) ;
#252 = CALENDAR_DATE ( 2023, 31, 3 ) ;
#253 = CYLINDRICAL_SURFACE ( 'NONE', #57, 2.499999999999994227 ) ;
#254 = APPROVAL ( #149, 'UNSPECIFIED' ) ;
#255 = CARTESIAN_POINT ( 'NONE',  ( -2.137876538271896752E-31, 2.499999999999992895, -6.123121766362532060E-17 ) ) ;
#256 = VERTEX_POINT ( 'NONE', #189 ) ;
#257 = CARTESIAN_POINT ( 'NONE',  ( 2.426579530495977493E-13, -8.511295254074105418E-15, 69.50000000000000000 ) ) ;
#258 = VERTEX_POINT ( 'NONE', #168 ) ;
#259 = DIRECTION ( 'NONE',  ( 4.275831445896958607E-31, 1.000000000000000000, 1.224646799147353207E-16 ) ) ;
#260 = CC_DESIGN_APPROVAL ( #147, ( #38 ) ) ;
#261 = DIRECTION ( 'NONE',  ( -3.491481338843133355E-15, 1.224646799147353207E-16, -1.000000000000000000 ) ) ;
#262 = CARTESIAN_POINT ( 'NONE',  ( 1.047444401652940007E-13, 2.499999999999992895, 30.00000000000000000 ) ) ;
#263 = VERTEX_POINT ( 'NONE', #262 ) ;
#264 = DATE_TIME_ROLE ( 'creation_date' ) ;
#265 = ORIENTED_EDGE ( 'NONE', *, *, #158, .T. ) ;
#266 = CIRCLE ( 'NONE', #309, 2.499999999999996003 ) ;
#267 = CC_DESIGN_PERSON_AND_ORGANIZATION_ASSIGNMENT ( #22, #221, ( #313 ) ) ;
#268 = APPLICATION_PROTOCOL_DEFINITION ( 'international standard', 'config_control_design', 1994, #33 ) ;
#269 = COORDINATED_UNIVERSAL_TIME_OFFSET ( 1, 0, .AHEAD. ) ;
#270 = CARTESIAN_POINT ( 'NONE',  ( 2.426579530495977493E-13, -8.511295254074105418E-15, 69.50000000000000000 ) ) ;
#271 = DIRECTION ( 'NONE',  ( 0.000000000000000000, 1.000000000000000000, 0.000000000000000000 ) ) ;
#272 = PRODUCT_RELATED_PRODUCT_CATEGORY ( 'detail', '', ( #313 ) ) ;
#273 = PERSON_AND_ORGANIZATION ( #290, #277 ) ;
#274 = CARTESIAN_POINT ( 'NONE',  ( 1.047444401652940007E-13, -3.673940397442059178E-15, 30.00000000000000000 ) ) ;
#275 = CC_DESIGN_PERSON_AND_ORGANIZATION_ASSIGNMENT ( #45, #120, ( #184 ) ) ;
#276 = CARTESIAN_POINT ( 'NONE',  ( 0.000000000000000000, 0.000000000000000000, 0.000000000000000000 ) ) ;
#277 = ORGANIZATION ( 'UNSPECIFIED', 'UNSPECIFIED', '' ) ;
#278 = ORIENTED_EDGE ( 'NONE', *, *, #158, .F. ) ;
#279 = DIRECTION ( 'NONE',  ( -3.491481338843133355E-15, 1.224646799147353207E-16, -1.000000000000000000 ) ) ;
#280 = APPLICATION_CONTEXT ( 'configuration controlled 3d designs of mechanical parts and assemblies' ) ;
#281 = CARTESIAN_POINT ( 'NONE',  ( 2.444036937190193601E-13, 1.999999999999992673, 70.00000000000000000 ) ) ;
#282 = CARTESIAN_POINT ( 'NONE',  ( 2.444036937190193601E-13, 1.999999999999992673, 70.00000000000000000 ) ) ;
#283 = VERTEX_POINT ( 'NONE', #255 ) ;
#284 = CONICAL_SURFACE ( 'NONE', #166, 2.000000000000001332, 0.7853981633974479459 ) ;
#285 = DIRECTION ( 'NONE',  ( -3.491481338843133355E-15, 1.224646799147353207E-16, -1.000000000000000000 ) ) ;
#286 = ORIENTED_EDGE ( 'NONE', *, *, #137, .T. ) ;
#287 = ORIENTED_EDGE ( 'NONE', *, *, #193, .T. ) ;
#288 = DATE_AND_TIME ( #216, #148 ) ;
#289 = VECTOR ( 'NONE', #101, 1000.000000000000000 ) ;
#290 = PERSON ( 'UNSPECIFIED', 'UNSPECIFIED', 'UNSPECIFIED', ('UNSPECIFIED'), ('UNSPECIFIED'), ('UNSPECIFIED') ) ;
#291 =( NAMED_UNIT ( * ) SI_UNIT ( $, .STERADIAN. ) SOLID_ANGLE_UNIT ( ) );
#292 = EDGE_LOOP ( 'NONE', ( #287, #35 ) ) ;
#293 = CARTESIAN_POINT ( 'NONE',  ( 2.446486230788488304E-13, -2.000000000000010214, 70.00000000000000000 ) ) ;
#294 = APPROVAL_ROLE ( '' ) ;
#295 = FACE_OUTER_BOUND ( 'NONE', #51, .T. ) ;
#296 = APPROVAL_DATE_TIME ( #134, #147 ) ;
#297 = CARTESIAN_POINT ( 'NONE',  ( 2.444036937190193601E-13, -8.572527594031472993E-15, 70.00000000000000000 ) ) ;
#298 = AXIS2_PLACEMENT_3D ( 'NONE', #270, #150, #47 ) ;
#299 = AXIS2_PLACEMENT_3D ( 'NONE', #183, #112, #58 ) ;
#300 = CARTESIAN_POINT ( 'NONE',  ( 1.047444401652940007E-13, -3.673940397442059178E-15, 30.00000000000000000 ) ) ;
#301 = DIRECTION ( 'NONE',  ( 0.000000000000000000, 1.000000000000000000, 0.000000000000000000 ) ) ;
#302 = APPROVAL_PERSON_ORGANIZATION ( #146, #135, #70 ) ;
#303 = ORIENTED_EDGE ( 'NONE', *, *, #224, .F. ) ;
#304 = CARTESIAN_POINT ( 'NONE',  ( 0.000000000000000000, 0.000000000000000000, 0.000000000000000000 ) ) ;
#305 = EDGE_LOOP ( 'NONE', ( #265, #128, #21, #96 ) ) ;
#306 = DIRECTION ( 'NONE',  ( 0.000000000000000000, 1.000000000000000000, 0.000000000000000000 ) ) ;
#307 = CARTESIAN_POINT ( 'NONE',  ( 1.047444401652940007E-13, 2.499999999999992895, 30.00000000000000000 ) ) ;
#308 = AXIS2_PLACEMENT_3D ( 'NONE', #274, #136, #271 ) ;
#309 = AXIS2_PLACEMENT_3D ( 'NONE', #300, #82, #306 ) ;
#310 = CC_DESIGN_APPROVAL ( #135, ( #184 ) ) ;
#311 = APPLICATION_PROTOCOL_DEFINITION ( 'international standard', 'config_control_design', 1994, #280 ) ;
#312 = ORIENTED_EDGE ( 'NONE', *, *, #10, .T. ) ;
#313 = PRODUCT ( '372740', '372740', '', ( #20 ) ) ;
ENDSEC;
END-ISO-10303-21;
