ISO-10303-21;
HEADER;
FILE_DESCRIPTION (( 'STEP AP203' ),
    '1' );
FILE_NAME ('372739.step',
    '2023-03-31T07:09:01',
    ( '' ),
    ( '' ),
    'SwSTEP 2.0',
    'SolidWorks 2022',
    '' );
FILE_SCHEMA (( 'CONFIG_CONTROL_DESIGN' ));
ENDSEC;

DATA;
#1 = CARTESIAN_POINT ( 'NONE',  ( 1.068957861474236937E-30, 2.499999999999993339, 3.061616997868375253E-16 ) ) ;
#2 = DIRECTION ( 'NONE',  ( -4.275831445896958607E-31, -1.000000000000000000, -1.224646799147353207E-16 ) ) ;
#3 = ORIENTED_EDGE ( 'NONE', *, *, #305, .T. ) ;
#4 = PRODUCT ( '372739', '372739', '', ( #178 ) ) ;
#5 = MANIFOLD_SOLID_BREP ( 'Corps-Déplacer/Copier1[2]', #53 ) ;
#6 = DIRECTION ( 'NONE',  ( 4.275831445896959482E-31, 1.000000000000000000, 1.224646799147353207E-16 ) ) ;
#7 = VECTOR ( 'NONE', #253, 1000.000000000000000 ) ;
#8 = CARTESIAN_POINT ( 'NONE',  ( 2.077431396611664157E-13, 2.499999999999992895, 59.50000000000000000 ) ) ;
#9 = VERTEX_POINT ( 'NONE', #39 ) ;
#10 = CARTESIAN_POINT ( 'NONE',  ( 0.000000000000000000, 0.000000000000000000, 0.000000000000000000 ) ) ;
#11 = ADVANCED_FACE ( 'NONE', ( #204 ), #233, .T. ) ;
#12 = APPROVAL_ROLE ( '' ) ;
#13 = APPROVAL ( #261, 'UNSPECIFIED' ) ;
#14 = CARTESIAN_POINT ( 'NONE',  ( 2.077431396611664157E-13, -7.286648454926750781E-15, 59.50000000000000000 ) ) ;
#15 = ORIENTED_EDGE ( 'NONE', *, *, #272, .T. ) ;
#16 = DIRECTION ( 'NONE',  ( -3.491481338843133355E-15, 1.224646799147353207E-16, -1.000000000000000000 ) ) ;
#17 = CYLINDRICAL_SURFACE ( 'NONE', #104, 2.499999999999996891 ) ;
#18 = DIRECTION ( 'NONE',  ( 4.275831445896958607E-31, 1.000000000000000000, 1.224646799147352961E-16 ) ) ;
#19 = LOCAL_TIME ( 9, 9, 1.000000000000000000, #309 ) ;
#20 = EDGE_CURVE ( 'NONE', #208, #127, #122, .T. ) ;
#21 = CARTESIAN_POINT ( 'NONE',  ( 2.649227174111031910E-14, -2.499999999999996003, 15.00000000000000000 ) ) ;
#22 = ORIENTED_EDGE ( 'NONE', *, *, #20, .F. ) ;
#23 = CC_DESIGN_PERSON_AND_ORGANIZATION_ASSIGNMENT ( #167, #120, ( #274 ) ) ;
#24 = PRODUCT_DEFINITION_FORMATION_WITH_SPECIFIED_SOURCE ( 'ANY', '', #4, .NOT_KNOWN. ) ;
#25 = DIRECTION ( 'NONE',  ( 0.000000000000000000, 1.000000000000000000, 0.000000000000000000 ) ) ;
#26 = DIRECTION ( 'NONE',  ( 0.000000000000000000, 1.000000000000000000, 0.000000000000000000 ) ) ;
#27 = ORIENTED_EDGE ( 'NONE', *, *, #209, .T. ) ;
#28 = CONICAL_SURFACE ( 'NONE', #138, 2.000000000000000000, 0.7853981633974479459 ) ;
#29 = DIRECTION ( 'NONE',  ( 0.000000000000000000, 1.000000000000000000, 0.000000000000000000 ) ) ;
#30 = APPLICATION_PROTOCOL_DEFINITION ( 'international standard', 'config_control_design', 1994, #109 ) ;
#31 = EDGE_LOOP ( 'NONE', ( #212, #172 ) ) ;
#32 = ORIENTED_EDGE ( 'NONE', *, *, #20, .T. ) ;
#33 = AXIS2_PLACEMENT_3D ( 'NONE', #46, #118, #244 ) ;
#34 = VERTEX_POINT ( 'NONE', #55 ) ;
#35 = DIRECTION ( 'NONE',  ( 4.275831445896959482E-31, 1.000000000000000000, 1.224646799147353454E-16 ) ) ;
#36 = EDGE_CURVE ( 'NONE', #127, #249, #304, .T. ) ;
#37 = PERSON_AND_ORGANIZATION ( #220, #184 ) ;
#38 = PRODUCT_RELATED_PRODUCT_CATEGORY ( 'detail', '', ( #4 ) ) ;
#39 = CARTESIAN_POINT ( 'NONE',  ( 2.094888803305880013E-13, 1.999999999999992673, 60.00000000000000000 ) ) ;
#40 = APPROVAL_DATE_TIME ( #239, #89 ) ;
#41 = AXIS2_PLACEMENT_3D ( 'NONE', #48, #173, #99 ) ;
#42 = DIRECTION ( 'NONE',  ( -3.491481338843133355E-15, 1.224646799147353207E-16, -1.000000000000000000 ) ) ;
#43 = FACE_OUTER_BOUND ( 'NONE', #113, .T. ) ;
#44 = AXIS2_PLACEMENT_3D ( 'NONE', #176, #224, #2 ) ;
#45 = CC_DESIGN_APPROVAL ( #13, ( #24 ) ) ;
#46 = CARTESIAN_POINT ( 'NONE',  ( 0.000000000000000000, 0.000000000000000000, 0.000000000000000000 ) ) ;
#47 = ADVANCED_FACE ( 'NONE', ( #256 ), #278, .T. ) ;
#48 = CARTESIAN_POINT ( 'NONE',  ( 5.237222008264700033E-14, -1.836970198721029589E-15, 15.00000000000000000 ) ) ;
#49 = CARTESIAN_POINT ( 'NONE',  ( 2.094888803305880013E-13, 1.499759782661846660E-32, 60.00000000000000000 ) ) ;
#50 = CARTESIAN_POINT ( 'NONE',  ( 1.303638415716935017E-13, -2.499999999999996003, 15.00000000000000000 ) ) ;
#51 = ORIENTED_EDGE ( 'NONE', *, *, #180, .T. ) ;
#52 = DIRECTION ( 'NONE',  ( 0.000000000000000000, 1.000000000000000000, 0.000000000000000000 ) ) ;
#53 = CLOSED_SHELL ( 'NONE', ( #11, #100, #218, #74 ) ) ;
#54 = PERSON_AND_ORGANIZATION ( #220, #184 ) ;
#55 = CARTESIAN_POINT ( 'NONE',  ( -2.137876538271896752E-31, 2.499999999999992895, -6.123121766362532060E-17 ) ) ;
#56 = EDGE_CURVE ( 'NONE', #157, #95, #59, .T. ) ;
#57 = CARTESIAN_POINT ( 'NONE',  ( 5.237222008264700033E-14, 2.499999999999992895, 15.00000000000000000 ) ) ;
#58 = ORIENTED_EDGE ( 'NONE', *, *, #245, .T. ) ;
#59 = CIRCLE ( 'NONE', #77, 2.499999999999994227 ) ;
#60 = DATE_TIME_ROLE ( 'creation_date' ) ;
#61 = CARTESIAN_POINT ( 'NONE',  ( 0.000000000000000000, 0.000000000000000000, 0.000000000000000000 ) ) ;
#62 = EDGE_CURVE ( 'NONE', #175, #34, #203, .T. ) ;
#63 = CARTESIAN_POINT ( 'NONE',  ( 2.094888803305880013E-13, 1.999999999999992673, 60.00000000000000000 ) ) ;
#64 = APPROVAL_ROLE ( '' ) ;
#65 = APPLICATION_CONTEXT ( 'configuration controlled 3d designs of mechanical parts and assemblies' ) ;
#66 = CARTESIAN_POINT ( 'NONE',  ( 2.097338096904174716E-13, -2.000000000000007550, 60.00000000000000000 ) ) ;
#67 = VECTOR ( 'NONE', #192, 1000.000000000000000 ) ;
#68 = LOCAL_TIME ( 9, 9, 1.000000000000000000, #221 ) ;
#69 = FACE_OUTER_BOUND ( 'NONE', #289, .T. ) ;
#70 = DATE_TIME_ROLE ( 'classification_date' ) ;
#71 = CC_DESIGN_DATE_AND_TIME_ASSIGNMENT ( #282, #60, ( #121 ) ) ;
#72 = AXIS2_PLACEMENT_3D ( 'NONE', #213, #85, #156 ) ;
#73 = PLANE ( 'NONE',  #269 ) ;
#74 = ADVANCED_FACE ( 'NONE', ( #43 ), #290, .T. ) ;
#75 = CARTESIAN_POINT ( 'NONE',  ( 2.077431396611664157E-13, -7.286648454926750781E-15, 59.50000000000000000 ) ) ;
#76 = DIRECTION ( 'NONE',  ( -3.491481338843133355E-15, 1.224646799147353207E-16, -1.000000000000000000 ) ) ;
#77 = AXIS2_PLACEMENT_3D ( 'NONE', #222, #92, #267 ) ;
#78 = FACE_OUTER_BOUND ( 'NONE', #136, .T. ) ;
#79 = CARTESIAN_POINT ( 'NONE',  ( 0.000000000000000000, 0.000000000000000000, 0.000000000000000000 ) ) ;
#80 = ORIENTED_EDGE ( 'NONE', *, *, #56, .T. ) ;
#81 = DIRECTION ( 'NONE',  ( 0.000000000000000000, 1.000000000000000000, 0.000000000000000000 ) ) ;
#82 = AXIS2_PLACEMENT_3D ( 'NONE', #10, #279, #232 ) ;
#83 = CARTESIAN_POINT ( 'NONE',  ( 3.061616997868364899E-16, -2.499999999999993339, -3.061616997868385606E-16 ) ) ;
#84 = DIRECTION ( 'NONE',  ( -3.491481338843133355E-15, 1.224646799147353207E-16, -1.000000000000000000 ) ) ;
#85 = DIRECTION ( 'NONE',  ( -3.491481338843133355E-15, 1.224646799147353207E-16, -1.000000000000000000 ) ) ;
#86 = ORIENTED_EDGE ( 'NONE', *, *, #187, .F. ) ;
#87 = CIRCLE ( 'NONE', #258, 2.500000000000000000 ) ;
#88 = DESIGN_CONTEXT ( 'detailed design', #65, 'design' ) ;
#89 = APPROVAL ( #293, 'UNSPECIFIED' ) ;
#90 = PERSON_AND_ORGANIZATION_ROLE ( 'creator' ) ;
#91 = DIRECTION ( 'NONE',  ( 0.000000000000000000, 1.000000000000000000, 0.000000000000000000 ) ) ;
#92 = DIRECTION ( 'NONE',  ( -3.491481338843133355E-15, 1.224646799147353207E-16, -1.000000000000000000 ) ) ;
#93 = CALENDAR_DATE ( 2023, 31, 3 ) ;
#94 = LINE ( 'NONE', #66, #67 ) ;
#95 = VERTEX_POINT ( 'NONE', #313 ) ;
#96 = DIRECTION ( 'NONE',  ( -3.491481338843133355E-15, 1.224646799147353207E-16, -1.000000000000000000 ) ) ;
#97 = AXIS2_PLACEMENT_3D ( 'NONE', #14, #215, #81 ) ;
#98 = MANIFOLD_SOLID_BREP ( 'Corps-Déplacer/Copier1[1]', #235 ) ;
#99 = DIRECTION ( 'NONE',  ( 0.000000000000000000, 1.000000000000000000, 0.000000000000000000 ) ) ;
#100 = ADVANCED_FACE ( 'NONE', ( #243 ), #143, .F. ) ;
#101 = DIRECTION ( 'NONE',  ( -3.491481338843133355E-15, 1.224646799147353207E-16, -1.000000000000000000 ) ) ;
#102 = EDGE_CURVE ( 'NONE', #179, #127, #94, .T. ) ;
#103 = CARTESIAN_POINT ( 'NONE',  ( 2.094888803305880013E-13, -7.347880794884118356E-15, 60.00000000000000000 ) ) ;
#104 = AXIS2_PLACEMENT_3D ( 'NONE', #79, #154, #6 ) ;
#105 = LOCAL_TIME ( 9, 9, 1.000000000000000000, #190 ) ;
#106 = CIRCLE ( 'NONE', #292, 2.499999999999994227 ) ;
#107 = DIRECTION ( 'NONE',  ( 4.275831445896959482E-31, 1.000000000000000000, 1.224646799147353454E-16 ) ) ;
#108 = CC_DESIGN_PERSON_AND_ORGANIZATION_ASSIGNMENT ( #266, #90, ( #24 ) ) ;
#109 = APPLICATION_CONTEXT ( 'configuration controlled 3d designs of mechanical parts and assemblies' ) ;
#110 = AXIS2_PLACEMENT_3D ( 'NONE', #189, #42, #18 ) ;
#111 = CC_DESIGN_PERSON_AND_ORGANIZATION_ASSIGNMENT ( #160, #185, ( #4 ) ) ;
#112 = APPROVAL_ROLE ( '' ) ;
#113 = EDGE_LOOP ( 'NONE', ( #195, #308 ) ) ;
#114 = CALENDAR_DATE ( 2023, 31, 3 ) ;
#115 = COORDINATED_UNIVERSAL_TIME_OFFSET ( 1, 0, .AHEAD. ) ;
#116 = APPROVAL_PERSON_ORGANIZATION ( #216, #89, #64 ) ;
#117 = EDGE_LOOP ( 'NONE', ( #152, #186, #15, #225 ) ) ;
#118 = DIRECTION ( 'NONE',  ( -3.491481338843133355E-15, 1.224646799147353207E-16, -1.000000000000000000 ) ) ;
#119 = UNCERTAINTY_MEASURE_WITH_UNIT (LENGTH_MEASURE( 1.000000000000000082E-05 ), #301, 'distance_accuracy_value', 'NONE');
#120 = PERSON_AND_ORGANIZATION_ROLE ( 'classification_officer' ) ;
#121 = PRODUCT_DEFINITION ( 'UNKNOWN', '', #24, #88 ) ;
#122 = CIRCLE ( 'NONE', #97, 2.500000000000000000 ) ;
#123 = CARTESIAN_POINT ( 'NONE',  ( 5.237222008264700033E-14, 1.874699728327315441E-32, 15.00000000000000000 ) ) ;
#124 = PERSON_AND_ORGANIZATION_ROLE ( 'design_supplier' ) ;
#125 = PLANE ( 'NONE',  #44 ) ;
#126 = ADVANCED_FACE ( 'NONE', ( #165 ), #237, .T. ) ;
#127 = VERTEX_POINT ( 'NONE', #217 ) ;
#128 = DIRECTION ( 'NONE',  ( 0.000000000000000000, 1.000000000000000000, 0.000000000000000000 ) ) ;
#129 = PRODUCT_DEFINITION_SHAPE ( 'NONE', 'NONE',  #121 ) ;
#130 = CARTESIAN_POINT ( 'NONE',  ( 2.649227174111032857E-14, -2.499999999999992895, -6.735546172373926678E-16 ) ) ;
#131 = ADVANCED_BREP_SHAPE_REPRESENTATION ( '372739', ( #98, #5, #82 ), #162 ) ;
#132 = CC_DESIGN_PERSON_AND_ORGANIZATION_ASSIGNMENT ( #140, #210, ( #121 ) ) ;
#133 = ORIENTED_EDGE ( 'NONE', *, *, #142, .T. ) ;
#134 = ADVANCED_FACE ( 'NONE', ( #69 ), #17, .T. ) ;
#135 = ORIENTED_EDGE ( 'NONE', *, *, #62, .F. ) ;
#136 = EDGE_LOOP ( 'NONE', ( #51, #155, #22, #285 ) ) ;
#137 = EDGE_CURVE ( 'NONE', #127, #208, #87, .T. ) ;
#138 = AXIS2_PLACEMENT_3D ( 'NONE', #194, #246, #52 ) ;
#139 = APPROVAL_PERSON_ORGANIZATION ( #54, #211, #112 ) ;
#140 = PERSON_AND_ORGANIZATION ( #220, #184 ) ;
#141 = ORIENTED_EDGE ( 'NONE', *, *, #137, .T. ) ;
#142 = EDGE_CURVE ( 'NONE', #95, #34, #277, .T. ) ;
#143 = PLANE ( 'NONE',  #299 ) ;
#144 = APPROVAL_DATE_TIME ( #169, #13 ) ;
#145 = VECTOR ( 'NONE', #262, 1000.000000000000000 ) ;
#146 = DIRECTION ( 'NONE',  ( -4.275831445896958607E-31, -1.000000000000000000, -1.224646799147353207E-16 ) ) ;
#147 = ADVANCED_FACE ( 'NONE', ( #78 ), #28, .T. ) ;
#148 = FACE_OUTER_BOUND ( 'NONE', #31, .T. ) ;
#149 = DIRECTION ( 'NONE',  ( -3.491481338843133355E-15, 1.224646799147353207E-16, -1.000000000000000000 ) ) ;
#150 = CIRCLE ( 'NONE', #72, 2.499999999999992895 ) ;
#151 = ORIENTED_EDGE ( 'NONE', *, *, #250, .F. ) ;
#152 = ORIENTED_EDGE ( 'NONE', *, *, #102, .F. ) ;
#153 = CC_DESIGN_DATE_AND_TIME_ASSIGNMENT ( #310, #70, ( #274 ) ) ;
#154 = DIRECTION ( 'NONE',  ( -3.491481338843133355E-15, 1.224646799147353207E-16, -1.000000000000000000 ) ) ;
#155 = ORIENTED_EDGE ( 'NONE', *, *, #102, .T. ) ;
#156 = DIRECTION ( 'NONE',  ( 4.275831445896958607E-31, 1.000000000000000000, 1.224646799147352961E-16 ) ) ;
#157 = VERTEX_POINT ( 'NONE', #21 ) ;
#158 = LINE ( 'NONE', #63, #242 ) ;
#159 = DIRECTION ( 'NONE',  ( -3.491481338843133355E-15, 1.224646799147353207E-16, -1.000000000000000000 ) ) ;
#160 = PERSON_AND_ORGANIZATION ( #220, #184 ) ;
#161 = CIRCLE ( 'NONE', #170, 2.000000000000000000 ) ;
#162 =( GEOMETRIC_REPRESENTATION_CONTEXT ( 3 ) GLOBAL_UNCERTAINTY_ASSIGNED_CONTEXT ( ( #119 ) ) GLOBAL_UNIT_ASSIGNED_CONTEXT ( ( #301, #281, #164 ) ) REPRESENTATION_CONTEXT ( 'NONE', 'WORKASPACE' ) );
#163 = PERSON_AND_ORGANIZATION ( #220, #184 ) ;
#164 =( NAMED_UNIT ( * ) SI_UNIT ( $, .STERADIAN. ) SOLID_ANGLE_UNIT ( ) );
#165 = FACE_OUTER_BOUND ( 'NONE', #199, .T. ) ;
#166 = AXIS2_PLACEMENT_3D ( 'NONE', #280, #159, #91 ) ;
#167 = PERSON_AND_ORGANIZATION ( #220, #184 ) ;
#168 = EDGE_CURVE ( 'NONE', #179, #9, #273, .T. ) ;
#169 = DATE_AND_TIME ( #188, #205 ) ;
#170 = AXIS2_PLACEMENT_3D ( 'NONE', #197, #96, #26 ) ;
#171 = DIRECTION ( 'NONE',  ( -3.491481338843133355E-15, 1.224646799147353207E-16, -1.000000000000000000 ) ) ;
#172 = ORIENTED_EDGE ( 'NONE', *, *, #168, .F. ) ;
#173 = DIRECTION ( 'NONE',  ( -3.491481338843133355E-15, 1.224646799147353207E-16, -1.000000000000000000 ) ) ;
#174 = DIRECTION ( 'NONE',  ( 0.000000000000000000, 1.000000000000000000, 0.000000000000000000 ) ) ;
#175 = VERTEX_POINT ( 'NONE', #130 ) ;
#176 = CARTESIAN_POINT ( 'NONE',  ( 5.237222008264700033E-14, 1.874699728327315441E-32, 15.00000000000000000 ) ) ;
#177 = AXIS2_PLACEMENT_3D ( 'NONE', #296, #101, #107 ) ;
#178 = MECHANICAL_CONTEXT ( 'NONE', #109, 'mechanical' ) ;
#179 = VERTEX_POINT ( 'NONE', #275 ) ;
#180 = EDGE_CURVE ( 'NONE', #9, #179, #161, .T. ) ;
#181 = CALENDAR_DATE ( 2023, 31, 3 ) ;
#182 = AXIS2_PLACEMENT_3D ( 'NONE', #270, #193, #29 ) ;
#183 = EDGE_LOOP ( 'NONE', ( #58, #288, #260, #276 ) ) ;
#184 = ORGANIZATION ( 'UNSPECIFIED', 'UNSPECIFIED', '' ) ;
#185 = PERSON_AND_ORGANIZATION_ROLE ( 'design_owner' ) ;
#186 = ORIENTED_EDGE ( 'NONE', *, *, #168, .T. ) ;
#187 = EDGE_CURVE ( 'NONE', #249, #297, #214, .T. ) ;
#188 = CALENDAR_DATE ( 2023, 31, 3 ) ;
#189 = CARTESIAN_POINT ( 'NONE',  ( -1.282745515301426305E-30, 4.499265603851169331E-32, -3.673929174504626980E-16 ) ) ;
#190 = COORDINATED_UNIVERSAL_TIME_OFFSET ( 1, 0, .AHEAD. ) ;
#191 = CARTESIAN_POINT ( 'NONE',  ( -6.413727576507131527E-31, 2.249632801925584666E-32, -1.836964587252313490E-16 ) ) ;
#192 = DIRECTION ( 'NONE',  ( -2.382254525458717469E-15, -0.7071067811865471286, -0.7071067811865479058 ) ) ;
#193 = DIRECTION ( 'NONE',  ( -3.491481338843133355E-15, 1.224646799147353207E-16, -1.000000000000000000 ) ) ;
#194 = CARTESIAN_POINT ( 'NONE',  ( 2.094888803305880013E-13, -7.347880794884118356E-15, 60.00000000000000000 ) ) ;
#195 = ORIENTED_EDGE ( 'NONE', *, *, #245, .F. ) ;
#196 = FACE_OUTER_BOUND ( 'NONE', #238, .T. ) ;
#197 = CARTESIAN_POINT ( 'NONE',  ( 2.094888803305880013E-13, -7.347880794884118356E-15, 60.00000000000000000 ) ) ;
#198 = CC_DESIGN_SECURITY_CLASSIFICATION ( #274, ( #24 ) ) ;
#199 = EDGE_LOOP ( 'NONE', ( #32, #206, #271, #151 ) ) ;
#200 = LINE ( 'NONE', #83, #145 ) ;
#201 = ORIENTED_EDGE ( 'NONE', *, *, #36, .F. ) ;
#202 = ADVANCED_FACE ( 'NONE', ( #228 ), #125, .F. ) ;
#203 = CIRCLE ( 'NONE', #110, 2.499999999999992895 ) ;
#204 = FACE_OUTER_BOUND ( 'NONE', #183, .T. ) ;
#205 = LOCAL_TIME ( 9, 9, 1.000000000000000000, #115 ) ;
#206 = ORIENTED_EDGE ( 'NONE', *, *, #36, .T. ) ;
#207 = DATE_AND_TIME ( #114, #286 ) ;
#208 = VERTEX_POINT ( 'NONE', #8 ) ;
#209 = EDGE_CURVE ( 'NONE', #297, #249, #268, .T. ) ;
#210 = PERSON_AND_ORGANIZATION_ROLE ( 'creator' ) ;
#211 = APPROVAL ( #287, 'UNSPECIFIED' ) ;
#212 = ORIENTED_EDGE ( 'NONE', *, *, #180, .F. ) ;
#213 = CARTESIAN_POINT ( 'NONE',  ( -1.282745515301426305E-30, 4.499265603851169331E-32, -3.673929174504626980E-16 ) ) ;
#214 = CIRCLE ( 'NONE', #182, 2.499999999999994227 ) ;
#215 = DIRECTION ( 'NONE',  ( -3.491481338843133355E-15, 1.224646799147353207E-16, -1.000000000000000000 ) ) ;
#216 = PERSON_AND_ORGANIZATION ( #220, #184 ) ;
#217 = CARTESIAN_POINT ( 'NONE',  ( 1.303638415716933503E-13, -2.500000000000007550, 59.50000000000000000 ) ) ;
#218 = ADVANCED_FACE ( 'NONE', ( #196 ), #295, .T. ) ;
#219 = ADVANCED_FACE ( 'NONE', ( #148 ), #73, .F. ) ;
#220 = PERSON ( 'UNSPECIFIED', 'UNSPECIFIED', 'UNSPECIFIED', ('UNSPECIFIED'), ('UNSPECIFIED'), ('UNSPECIFIED') ) ;
#221 = COORDINATED_UNIVERSAL_TIME_OFFSET ( 1, 0, .AHEAD. ) ;
#222 = CARTESIAN_POINT ( 'NONE',  ( 5.237222008264700033E-14, -1.836970198721029589E-15, 15.00000000000000000 ) ) ;
#223 = DIRECTION ( 'NONE',  ( -3.491481338843133355E-15, 1.224646799147353207E-16, -1.000000000000000000 ) ) ;
#224 = DIRECTION ( 'NONE',  ( 3.491481338843133355E-15, -1.224646799147353207E-16, 1.000000000000000000 ) ) ;
#225 = ORIENTED_EDGE ( 'NONE', *, *, #137, .F. ) ;
#226 = CARTESIAN_POINT ( 'NONE',  ( 1.068957861474238513E-30, 2.499999999999996891, 3.061616997868379197E-16 ) ) ;
#227 = EDGE_LOOP ( 'NONE', ( #3, #263 ) ) ;
#228 = FACE_OUTER_BOUND ( 'NONE', #302, .T. ) ;
#229 = ORIENTED_EDGE ( 'NONE', *, *, #187, .T. ) ;
#230 = DIRECTION ( 'NONE',  ( -2.468850131082266527E-15, 0.7071067811865473507, -0.7071067811865477948 ) ) ;
#231 = VECTOR ( 'NONE', #251, 1000.000000000000000 ) ;
#232 = DIRECTION ( 'NONE',  ( 1.000000000000000000, 0.000000000000000000, 0.000000000000000000 ) ) ;
#233 = CYLINDRICAL_SURFACE ( 'NONE', #303, 2.499999999999993339 ) ;
#234 = CC_DESIGN_PERSON_AND_ORGANIZATION_ASSIGNMENT ( #37, #124, ( #24 ) ) ;
#235 = CLOSED_SHELL ( 'NONE', ( #147, #126, #202, #134, #47, #219 ) ) ;
#236 = DIRECTION ( 'NONE',  ( -4.275831445896958607E-31, -1.000000000000000000, -1.224646799147353207E-16 ) ) ;
#237 = CYLINDRICAL_SURFACE ( 'NONE', #33, 2.499999999999996891 ) ;
#238 = EDGE_LOOP ( 'NONE', ( #306, #80, #133, #135 ) ) ;
#239 = DATE_AND_TIME ( #264, #68 ) ;
#240 = AXIS2_PLACEMENT_3D ( 'NONE', #123, #265, #236 ) ;
#241 = VECTOR ( 'NONE', #84, 1000.000000000000000 ) ;
#242 = VECTOR ( 'NONE', #230, 999.9999999999998863 ) ;
#243 = FACE_OUTER_BOUND ( 'NONE', #227, .T. ) ;
#244 = DIRECTION ( 'NONE',  ( 4.275831445896959482E-31, 1.000000000000000000, 1.224646799147353207E-16 ) ) ;
#245 = EDGE_CURVE ( 'NONE', #95, #157, #106, .T. ) ;
#246 = DIRECTION ( 'NONE',  ( -3.491481338843133355E-15, 1.224646799147353207E-16, -1.000000000000000000 ) ) ;
#247 = DIRECTION ( 'NONE',  ( 4.275831445896958607E-31, 1.000000000000000000, 1.224646799147353207E-16 ) ) ;
#248 = LINE ( 'NONE', #226, #7 ) ;
#249 = VERTEX_POINT ( 'NONE', #50 ) ;
#250 = EDGE_CURVE ( 'NONE', #208, #297, #248, .T. ) ;
#251 = DIRECTION ( 'NONE',  ( -3.491481338843133355E-15, 1.224646799147353207E-16, -1.000000000000000000 ) ) ;
#252 = ORIENTED_EDGE ( 'NONE', *, *, #250, .T. ) ;
#253 = DIRECTION ( 'NONE',  ( -3.491481338843133355E-15, 1.224646799147353207E-16, -1.000000000000000000 ) ) ;
#254 = CARTESIAN_POINT ( 'NONE',  ( 3.061616997868368843E-16, -2.499999999999996891, -3.061616997868389551E-16 ) ) ;
#255 = COORDINATED_UNIVERSAL_TIME_OFFSET ( 1, 0, .AHEAD. ) ;
#256 = FACE_OUTER_BOUND ( 'NONE', #117, .T. ) ;
#257 = APPLICATION_PROTOCOL_DEFINITION ( 'international standard', 'config_control_design', 1994, #65 ) ;
#258 = AXIS2_PLACEMENT_3D ( 'NONE', #75, #171, #25 ) ;
#259 = CC_DESIGN_APPROVAL ( #211, ( #121 ) ) ;
#260 = ORIENTED_EDGE ( 'NONE', *, *, #305, .F. ) ;
#261 = APPROVAL_STATUS ( 'not_yet_approved' ) ;
#262 = DIRECTION ( 'NONE',  ( -3.491481338843133355E-15, 1.224646799147353207E-16, -1.000000000000000000 ) ) ;
#263 = ORIENTED_EDGE ( 'NONE', *, *, #62, .T. ) ;
#264 = CALENDAR_DATE ( 2023, 31, 3 ) ;
#265 = DIRECTION ( 'NONE',  ( 3.491481338843133355E-15, -1.224646799147353207E-16, 1.000000000000000000 ) ) ;
#266 = PERSON_AND_ORGANIZATION ( #220, #184 ) ;
#267 = DIRECTION ( 'NONE',  ( 0.000000000000000000, 1.000000000000000000, 0.000000000000000000 ) ) ;
#268 = CIRCLE ( 'NONE', #41, 2.499999999999994227 ) ;
#269 = AXIS2_PLACEMENT_3D ( 'NONE', #49, #149, #247 ) ;
#270 = CARTESIAN_POINT ( 'NONE',  ( 5.237222008264700033E-14, -1.836970198721029589E-15, 15.00000000000000000 ) ) ;
#271 = ORIENTED_EDGE ( 'NONE', *, *, #209, .F. ) ;
#272 = EDGE_CURVE ( 'NONE', #9, #208, #158, .T. ) ;
#273 = CIRCLE ( 'NONE', #283, 2.000000000000000000 ) ;
#274 = SECURITY_CLASSIFICATION ( '', '', #311 ) ;
#275 = CARTESIAN_POINT ( 'NONE',  ( 2.088915555256853563E-13, -2.000000000000007550, 60.00000000000000000 ) ) ;
#276 = ORIENTED_EDGE ( 'NONE', *, *, #142, .F. ) ;
#277 = LINE ( 'NONE', #1, #231 ) ;
#278 = CONICAL_SURFACE ( 'NONE', #166, 2.000000000000000000, 0.7853981633974479459 ) ;
#279 = DIRECTION ( 'NONE',  ( 0.000000000000000000, 0.000000000000000000, 1.000000000000000000 ) ) ;
#280 = CARTESIAN_POINT ( 'NONE',  ( 2.094888803305880013E-13, -7.347880794884118356E-15, 60.00000000000000000 ) ) ;
#281 =( NAMED_UNIT ( * ) PLANE_ANGLE_UNIT ( ) SI_UNIT ( $, .RADIAN. ) );
#282 = DATE_AND_TIME ( #181, #19 ) ;
#283 = AXIS2_PLACEMENT_3D ( 'NONE', #103, #223, #128 ) ;
#284 = CC_DESIGN_APPROVAL ( #89, ( #274 ) ) ;
#285 = ORIENTED_EDGE ( 'NONE', *, *, #272, .F. ) ;
#286 = LOCAL_TIME ( 9, 9, 1.000000000000000000, #255 ) ;
#287 = APPROVAL_STATUS ( 'not_yet_approved' ) ;
#288 = ORIENTED_EDGE ( 'NONE', *, *, #312, .T. ) ;
#289 = EDGE_LOOP ( 'NONE', ( #201, #141, #252, #86 ) ) ;
#290 = PLANE ( 'NONE',  #240 ) ;
#291 = SHAPE_DEFINITION_REPRESENTATION ( #129, #131 ) ;
#292 = AXIS2_PLACEMENT_3D ( 'NONE', #298, #76, #174 ) ;
#293 = APPROVAL_STATUS ( 'not_yet_approved' ) ;
#294 = DIRECTION ( 'NONE',  ( 3.491481338843133355E-15, -1.224646799147353207E-16, 1.000000000000000000 ) ) ;
#295 = CYLINDRICAL_SURFACE ( 'NONE', #177, 2.499999999999993339 ) ;
#296 = CARTESIAN_POINT ( 'NONE',  ( 0.000000000000000000, 0.000000000000000000, 0.000000000000000000 ) ) ;
#297 = VERTEX_POINT ( 'NONE', #57 ) ;
#298 = CARTESIAN_POINT ( 'NONE',  ( 5.237222008264700033E-14, -1.836970198721029589E-15, 15.00000000000000000 ) ) ;
#299 = AXIS2_PLACEMENT_3D ( 'NONE', #191, #294, #146 ) ;
#300 = APPROVAL_PERSON_ORGANIZATION ( #163, #13, #12 ) ;
#301 =( LENGTH_UNIT ( ) NAMED_UNIT ( * ) SI_UNIT ( .MILLI., .METRE. ) );
#302 = EDGE_LOOP ( 'NONE', ( #27, #229 ) ) ;
#303 = AXIS2_PLACEMENT_3D ( 'NONE', #61, #16, #35 ) ;
#304 = LINE ( 'NONE', #254, #241 ) ;
#305 = EDGE_CURVE ( 'NONE', #34, #175, #150, .T. ) ;
#306 = ORIENTED_EDGE ( 'NONE', *, *, #312, .F. ) ;
#307 = APPROVAL_DATE_TIME ( #207, #211 ) ;
#308 = ORIENTED_EDGE ( 'NONE', *, *, #56, .F. ) ;
#309 = COORDINATED_UNIVERSAL_TIME_OFFSET ( 1, 0, .AHEAD. ) ;
#310 = DATE_AND_TIME ( #93, #105 ) ;
#311 = SECURITY_CLASSIFICATION_LEVEL ( 'unclassified' ) ;
#312 = EDGE_CURVE ( 'NONE', #157, #175, #200, .T. ) ;
#313 = CARTESIAN_POINT ( 'NONE',  ( 5.237222008264700033E-14, 2.499999999999992895, 15.00000000000000000 ) ) ;
ENDSEC;
END-ISO-10303-21;
