ISO-10303-21;
HEADER;
FILE_DESCRIPTION (( 'STEP AP203' ),
    '1' );
FILE_NAME ('372738.step',
    '2023-03-31T07:09:00',
    ( '' ),
    ( '' ),
    'SwSTEP 2.0',
    'SolidWorks 2022',
    '' );
FILE_SCHEMA (( 'CONFIG_CONTROL_DESIGN' ));
ENDSEC;

DATA;
#1 = CARTESIAN_POINT ( 'NONE',  ( 3.515974274826081016E-14, 1.999999999999996225, 20.00000000000000000 ) ) ;
#2 =( GEOMETRIC_REPRESENTATION_CONTEXT ( 3 ) GLOBAL_UNCERTAINTY_ASSIGNED_CONTEXT ( ( #141 ) ) GLOBAL_UNIT_ASSIGNED_CONTEXT ( ( #299, #232, #186 ) ) REPRESENTATION_CONTEXT ( 'NONE', 'WORKASPACE' ) );
#3 = ORIENTED_EDGE ( 'NONE', *, *, #161, .F. ) ;
#4 = CARTESIAN_POINT ( 'NONE',  ( 6.982962677686266711E-14, -2.552934622337390728E-15, 20.00000000000000000 ) ) ;
#5 = LINE ( 'NONE', #33, #21 ) ;
#6 = DIRECTION ( 'NONE',  ( 3.491481338843133355E-15, -1.276467311168695266E-16, 1.000000000000000000 ) ) ;
#7 = DIRECTION ( 'NONE',  ( 3.491481338843133355E-15, -1.276467311168695266E-16, 1.000000000000000000 ) ) ;
#8 = EDGE_LOOP ( 'NONE', ( #249, #113 ) ) ;
#9 = CALENDAR_DATE ( 2023, 31, 3 ) ;
#10 = APPROVAL_ROLE ( '' ) ;
#11 = AXIS2_PLACEMENT_3D ( 'NONE', #213, #310, #288 ) ;
#12 = ADVANCED_FACE ( 'NONE', ( #243 ), #151, .T. ) ;
#13 = VERTEX_POINT ( 'NONE', #185 ) ;
#14 = CC_DESIGN_PERSON_AND_ORGANIZATION_ASSIGNMENT ( #334, #242, ( #77 ) ) ;
#15 = COORDINATED_UNIVERSAL_TIME_OFFSET ( 1, 0, .AHEAD. ) ;
#16 = EDGE_CURVE ( 'NONE', #119, #107, #72, .T. ) ;
#17 = CARTESIAN_POINT ( 'NONE',  ( 2.094888803305880013E-13, 1.799711739194219277E-32, 60.00000000000000000 ) ) ;
#18 = ORIENTED_EDGE ( 'NONE', *, *, #126, .T. ) ;
#19 = EDGE_LOOP ( 'NONE', ( #59, #58, #45, #101 ) ) ;
#20 = CLOSED_SHELL ( 'NONE', ( #173, #128, #156, #170 ) ) ;
#21 = VECTOR ( 'NONE', #235, 1000.000000000000114 ) ;
#22 = PRODUCT_DEFINITION_FORMATION_WITH_SPECIFIED_SOURCE ( 'ANY', '', #179, .NOT_KNOWN. ) ;
#23 = LINE ( 'NONE', #187, #98 ) ;
#24 = EDGE_CURVE ( 'NONE', #219, #211, #326, .T. ) ;
#25 = APPLICATION_CONTEXT ( 'configuration controlled 3d designs of mechanical parts and assemblies' ) ;
#26 = MANIFOLD_SOLID_BREP ( 'Corps-Déplacer/Copier1[1]', #120 ) ;
#27 = ORIENTED_EDGE ( 'NONE', *, *, #262, .T. ) ;
#28 = FACE_OUTER_BOUND ( 'NONE', #275, .T. ) ;
#29 = DIRECTION ( 'NONE',  ( 0.000000000000000000, -1.000000000000000000, 0.000000000000000000 ) ) ;
#30 = EDGE_CURVE ( 'NONE', #55, #174, #35, .T. ) ;
#31 = ORIENTED_EDGE ( 'NONE', *, *, #93, .T. ) ;
#32 = CARTESIAN_POINT ( 'NONE',  ( 6.982962677686266711E-14, -2.000000000000001332, 20.00000000000000000 ) ) ;
#33 = CARTESIAN_POINT ( 'NONE',  ( 2.094888803305880013E-13, 2.399999999999994138, 60.00000000000000000 ) ) ;
#34 = ADVANCED_FACE ( 'NONE', ( #236 ), #300, .F. ) ;
#35 = CIRCLE ( 'NONE', #48, 1.999999999999999112 ) ;
#36 = CARTESIAN_POINT ( 'NONE',  ( 7.665098135177005431E-14, 1.999999999999996225, 20.00000000000000000 ) ) ;
#37 = FACE_OUTER_BOUND ( 'NONE', #361, .T. ) ;
#38 = CARTESIAN_POINT ( 'NONE',  ( 6.982962677686266711E-14, 2.249639673992779022E-32, 20.00000000000000000 ) ) ;
#39 = CONICAL_SURFACE ( 'NONE', #309, 6.999999999999999112, 0.2617993877991502405 ) ;
#40 = AXIS2_PLACEMENT_3D ( 'NONE', #266, #125, #97 ) ;
#41 = CARTESIAN_POINT ( 'NONE',  ( 1.349815555280683623E-13, -7.000000000000004441, 38.66025403784433223 ) ) ;
#42 = COORDINATED_UNIVERSAL_TIME_OFFSET ( 1, 0, .AHEAD. ) ;
#43 = CARTESIAN_POINT ( 'NONE',  ( -3.243059654561080202E-30, 9.511590187700545593E-32, -9.288492017647830582E-16 ) ) ;
#44 = EDGE_CURVE ( 'NONE', #174, #211, #272, .T. ) ;
#45 = ORIENTED_EDGE ( 'NONE', *, *, #95, .F. ) ;
#46 = ORIENTED_EDGE ( 'NONE', *, *, #283, .T. ) ;
#47 = ORIENTED_EDGE ( 'NONE', *, *, #283, .F. ) ;
#48 = AXIS2_PLACEMENT_3D ( 'NONE', #70, #204, #182 ) ;
#49 = PLANE ( 'NONE',  #348 ) ;
#50 = ORIENTED_EDGE ( 'NONE', *, *, #95, .T. ) ;
#51 = DIRECTION ( 'NONE',  ( -4.275831445896958607E-31, -1.000000000000000000, -1.224646799147353207E-16 ) ) ;
#52 = CC_DESIGN_DATE_AND_TIME_ASSIGNMENT ( #274, #78, ( #77 ) ) ;
#53 = EDGE_CURVE ( 'NONE', #119, #13, #5, .T. ) ;
#54 = CARTESIAN_POINT ( 'NONE',  ( 2.094888803305880013E-13, 2.399999999999994138, 60.00000000000000000 ) ) ;
#55 = VERTEX_POINT ( 'NONE', #100 ) ;
#56 = VECTOR ( 'NONE', #7, 1000.000000000000000 ) ;
#57 = CIRCLE ( 'NONE', #322, 3.000000000000001332 ) ;
#58 = ORIENTED_EDGE ( 'NONE', *, *, #91, .T. ) ;
#59 = ORIENTED_EDGE ( 'NONE', *, *, #16, .T. ) ;
#60 = CYLINDRICAL_SURFACE ( 'NONE', #122, 1.999999999999999112 ) ;
#61 = VERTEX_POINT ( 'NONE', #230 ) ;
#62 = DIRECTION ( 'NONE',  ( 3.491481338843133355E-15, -1.224646799147353207E-16, 1.000000000000000000 ) ) ;
#63 = AXIS2_PLACEMENT_3D ( 'NONE', #298, #184, #71 ) ;
#64 = DIRECTION ( 'NONE',  ( 3.491481338843133355E-15, -1.276467311168695266E-16, 1.000000000000000000 ) ) ;
#65 = CC_DESIGN_PERSON_AND_ORGANIZATION_ASSIGNMENT ( #195, #311, ( #169 ) ) ;
#66 = DIRECTION ( 'NONE',  ( 3.491481338843133355E-15, -1.276467311168695266E-16, 1.000000000000000000 ) ) ;
#67 = CARTESIAN_POINT ( 'NONE',  ( 1.454943960669371679E-13, -3.000000000000001332, 23.73205080756886431 ) ) ;
#68 = CIRCLE ( 'NONE', #206, 3.000000000000001332 ) ;
#69 = LINE ( 'NONE', #180, #284 ) ;
#70 = CARTESIAN_POINT ( 'NONE',  ( -3.243059654561080202E-30, 9.511590187700545593E-32, -9.288492017647830582E-16 ) ) ;
#71 = DIRECTION ( 'NONE',  ( 4.275831445896958607E-31, 1.000000000000000000, 1.224646799147353454E-16 ) ) ;
#72 = CIRCLE ( 'NONE', #347, 2.400000000000001688 ) ;
#73 = AXIS2_PLACEMENT_3D ( 'NONE', #17, #255, #282 ) ;
#74 = MECHANICAL_CONTEXT ( 'NONE', #90, 'mechanical' ) ;
#75 = DIRECTION ( 'NONE',  ( -2.382254525458723780E-15, -0.7071067811865453523, -0.7071067811865496822 ) ) ;
#76 = ORIENTED_EDGE ( 'NONE', *, *, #247, .F. ) ;
#77 = PRODUCT_DEFINITION ( 'UNKNOWN', '', #22, #279 ) ;
#78 = DATE_TIME_ROLE ( 'creation_date' ) ;
#79 = DIRECTION ( 'NONE',  ( 0.000000000000000000, 1.000000000000000000, 0.000000000000000000 ) ) ;
#80 = EDGE_LOOP ( 'NONE', ( #50, #46, #307, #265 ) ) ;
#81 = AXIS2_PLACEMENT_3D ( 'NONE', #178, #268, #231 ) ;
#82 = APPROVAL_ROLE ( '' ) ;
#83 = FACE_OUTER_BOUND ( 'NONE', #293, .T. ) ;
#84 = CC_DESIGN_DATE_AND_TIME_ASSIGNMENT ( #102, #250, ( #169 ) ) ;
#85 = COORDINATED_UNIVERSAL_TIME_OFFSET ( 1, 0, .AHEAD. ) ;
#86 = CARTESIAN_POINT ( 'NONE',  ( 2.094888803305880013E-13, -7.347880794884118356E-15, 60.00000000000000000 ) ) ;
#87 = DATE_AND_TIME ( #254, #234 ) ;
#88 = VECTOR ( 'NONE', #75, 1000.000000000000000 ) ;
#89 = DIRECTION ( 'NONE',  ( 3.404208188709233130E-15, 0.2588190451025214056, 0.9659258262890680902 ) ) ;
#90 = APPLICATION_CONTEXT ( 'configuration controlled 3d designs of mechanical parts and assemblies' ) ;
#91 = EDGE_CURVE ( 'NONE', #107, #61, #342, .T. ) ;
#92 = CC_DESIGN_APPROVAL ( #257, ( #22 ) ) ;
#93 = EDGE_CURVE ( 'NONE', #329, #134, #263, .T. ) ;
#94 = CARTESIAN_POINT ( 'NONE',  ( 2.073939915272820834E-13, -7.274401986935278213E-15, 59.39999999999999147 ) ) ;
#95 = EDGE_CURVE ( 'NONE', #13, #61, #68, .T. ) ;
#96 = CARTESIAN_POINT ( 'NONE',  ( 8.286001252710379101E-14, -3.029318708285628867E-15, 23.73205080756886431 ) ) ;
#97 = DIRECTION ( 'NONE',  ( 4.275831445896958607E-31, 1.000000000000000000, 1.224646799147353454E-16 ) ) ;
#98 = VECTOR ( 'NONE', #103, 1000.000000000000000 ) ;
#99 = DIRECTION ( 'NONE',  ( 0.000000000000000000, -1.000000000000000000, 0.000000000000000000 ) ) ;
#100 = CARTESIAN_POINT ( 'NONE',  ( 3.515974274826082909E-14, 1.999999999999999112, -6.735557395311667716E-16 ) ) ;
#101 = ORIENTED_EDGE ( 'NONE', *, *, #53, .F. ) ;
#102 = DATE_AND_TIME ( #140, #264 ) ;
#103 = DIRECTION ( 'NONE',  ( -3.491481338843133355E-15, 1.224646799147353207E-16, -1.000000000000000000 ) ) ;
#104 = CIRCLE ( 'NONE', #289, 2.400000000000001688 ) ;
#105 = CARTESIAN_POINT ( 'NONE',  ( 0.000000000000000000, 0.000000000000000000, 0.000000000000000000 ) ) ;
#106 = DIRECTION ( 'NONE',  ( -4.456761796588772289E-31, -1.000000000000000000, -1.276467311168695759E-16 ) ) ;
#107 = VERTEX_POINT ( 'NONE', #350 ) ;
#108 = ORIENTED_EDGE ( 'NONE', *, *, #16, .F. ) ;
#109 = DIRECTION ( 'NONE',  ( 0.000000000000000000, -1.000000000000000000, 0.000000000000000000 ) ) ;
#110 = AXIS2_PLACEMENT_3D ( 'NONE', #303, #269, #320 ) ;
#111 = ORIENTED_EDGE ( 'NONE', *, *, #24, .T. ) ;
#112 = APPROVAL_STATUS ( 'not_yet_approved' ) ;
#113 = ORIENTED_EDGE ( 'NONE', *, *, #93, .F. ) ;
#114 = ADVANCED_FACE ( 'NONE', ( #144 ), #328, .F. ) ;
#115 = AXIS2_PLACEMENT_3D ( 'NONE', #314, #145, #256 ) ;
#116 = DIRECTION ( 'NONE',  ( 3.491481338843133355E-15, -1.276467311168695266E-16, 1.000000000000000000 ) ) ;
#117 = CARTESIAN_POINT ( 'NONE',  ( 1.358388082874715336E-13, 6.999999999999993783, 38.66025403784433223 ) ) ;
#118 = DIRECTION ( 'NONE',  ( -3.491481338843133355E-15, 1.224646799147353207E-16, -1.000000000000000000 ) ) ;
#119 = VERTEX_POINT ( 'NONE', #54 ) ;
#120 = CLOSED_SHELL ( 'NONE', ( #214, #160, #321, #222, #12, #114, #148, #34 ) ) ;
#121 = DIRECTION ( 'NONE',  ( -3.491481338843133355E-15, 1.224646799147353207E-16, -1.000000000000000000 ) ) ;
#122 = AXIS2_PLACEMENT_3D ( 'NONE', #287, #116, #176 ) ;
#123 = AXIS2_PLACEMENT_3D ( 'NONE', #105, #327, #238 ) ;
#124 = ORIENTED_EDGE ( 'NONE', *, *, #259, .F. ) ;
#125 = DIRECTION ( 'NONE',  ( -3.491481338843133355E-15, 1.224646799147353207E-16, -1.000000000000000000 ) ) ;
#126 = EDGE_CURVE ( 'NONE', #13, #220, #23, .T. ) ;
#127 = CARTESIAN_POINT ( 'NONE',  ( 1.451270020271929625E-13, 2.999999999999995115, 23.73205080756886431 ) ) ;
#128 = ADVANCED_FACE ( 'NONE', ( #83 ), #49, .T. ) ;
#129 = VECTOR ( 'NONE', #6, 1000.000000000000000 ) ;
#130 = PRODUCT_DEFINITION_SHAPE ( 'NONE', 'NONE',  #77 ) ;
#131 = CARTESIAN_POINT ( 'NONE',  ( 2.449293598294708386E-16, 1.999999999999999112, 7.159379187309405376E-17 ) ) ;
#132 = EDGE_CURVE ( 'NONE', #174, #55, #332, .T. ) ;
#133 = APPROVAL_DATE_TIME ( #331, #257 ) ;
#134 = VERTEX_POINT ( 'NONE', #189 ) ;
#135 = EDGE_CURVE ( 'NONE', #329, #220, #306, .T. ) ;
#136 = DATE_AND_TIME ( #358, #349 ) ;
#137 = EDGE_LOOP ( 'NONE', ( #357, #316, #245, #330 ) ) ;
#138 = SECURITY_CLASSIFICATION_LEVEL ( 'unclassified' ) ;
#139 = ORIENTED_EDGE ( 'NONE', *, *, #183, .T. ) ;
#140 = CALENDAR_DATE ( 2023, 31, 3 ) ;
#141 = UNCERTAINTY_MEASURE_WITH_UNIT (LENGTH_MEASURE( 1.000000000000000082E-05 ), #299, 'distance_accuracy_value', 'NONE');
#142 = AXIS2_PLACEMENT_3D ( 'NONE', #38, #154, #157 ) ;
#143 = CIRCLE ( 'NONE', #202, 1.999999999999998668 ) ;
#144 = FACE_OUTER_BOUND ( 'NONE', #286, .T. ) ;
#145 = DIRECTION ( 'NONE',  ( 3.491481338843133355E-15, -1.276467311168695266E-16, 1.000000000000000000 ) ) ;
#146 = ORIENTED_EDGE ( 'NONE', *, *, #301, .T. ) ;
#147 = SHAPE_DEFINITION_REPRESENTATION ( #130, #258 ) ;
#148 = ADVANCED_FACE ( 'NONE', ( #260 ), #39, .T. ) ;
#149 = AXIS2_PLACEMENT_3D ( 'NONE', #317, #118, #150 ) ;
#150 = DIRECTION ( 'NONE',  ( 0.000000000000000000, 1.000000000000000000, 0.000000000000000000 ) ) ;
#151 = CONICAL_SURFACE ( 'NONE', #11, 2.400000000000001688, 0.7853981633974453924 ) ;
#152 = CYLINDRICAL_SURFACE ( 'NONE', #40, 2.999999999999998224 ) ;
#153 = VECTOR ( 'NONE', #89, 1000.000000000000000 ) ;
#154 = DIRECTION ( 'NONE',  ( 3.491481338843133355E-15, -1.224646799147353207E-16, 1.000000000000000000 ) ) ;
#155 = CARTESIAN_POINT ( 'NONE',  ( 1.349815555280683623E-13, -4.934855052078584576E-15, 38.66025403784433223 ) ) ;
#156 = ADVANCED_FACE ( 'NONE', ( #28 ), #60, .T. ) ;
#157 = DIRECTION ( 'NONE',  ( -4.275831445896958607E-31, -1.000000000000000000, -1.224646799147353207E-16 ) ) ;
#158 = ORGANIZATION ( 'UNSPECIFIED', 'UNSPECIFIED', '' ) ;
#159 = PERSON_AND_ORGANIZATION ( #292, #158 ) ;
#160 = ADVANCED_FACE ( 'NONE', ( #294 ), #318, .T. ) ;
#161 = EDGE_CURVE ( 'NONE', #107, #119, #104, .T. ) ;
#162 = APPROVAL_STATUS ( 'not_yet_approved' ) ;
#163 = DIRECTION ( 'NONE',  ( 3.491481338843133355E-15, -1.276467311168695266E-16, 1.000000000000000000 ) ) ;
#164 = ORIENTED_EDGE ( 'NONE', *, *, #30, .F. ) ;
#165 = ORIENTED_EDGE ( 'NONE', *, *, #135, .T. ) ;
#166 = CALENDAR_DATE ( 2023, 31, 3 ) ;
#167 = CC_DESIGN_PERSON_AND_ORGANIZATION_ASSIGNMENT ( #191, #308, ( #22 ) ) ;
#168 = CIRCLE ( 'NONE', #297, 1.999999999999998668 ) ;
#169 = SECURITY_CLASSIFICATION ( '', '', #138 ) ;
#170 = ADVANCED_FACE ( 'NONE', ( #363 ), #226, .F. ) ;
#171 = ORIENTED_EDGE ( 'NONE', *, *, #295, .T. ) ;
#172 = CARTESIAN_POINT ( 'NONE',  ( 6.982962677686266711E-14, 2.249639673992779022E-32, 20.00000000000000000 ) ) ;
#173 = ADVANCED_FACE ( 'NONE', ( #291 ), #227, .T. ) ;
#174 = VERTEX_POINT ( 'NONE', #223 ) ;
#175 = ORIENTED_EDGE ( 'NONE', *, *, #132, .T. ) ;
#176 = DIRECTION ( 'NONE',  ( -4.456761796588770537E-31, -1.000000000000000000, -1.276467311168695266E-16 ) ) ;
#177 = DIRECTION ( 'NONE',  ( -4.275831445896958607E-31, -1.000000000000000000, -1.224646799147353207E-16 ) ) ;
#178 = CARTESIAN_POINT ( 'NONE',  ( 8.286001252710379101E-14, -3.029318708285628867E-15, 23.73205080756886431 ) ) ;
#179 = PRODUCT ( '372738', '372738', '', ( #74 ) ) ;
#180 = CARTESIAN_POINT ( 'NONE',  ( 3.673940397442045077E-16, -2.999999999999998224, -3.673940397442070222E-16 ) ) ;
#181 = DIRECTION ( 'NONE',  ( 0.000000000000000000, 1.000000000000000000, 0.000000000000000000 ) ) ;
#182 = DIRECTION ( 'NONE',  ( -4.456761796588772289E-31, -1.000000000000000000, -1.276467311168695759E-16 ) ) ;
#183 = EDGE_CURVE ( 'NONE', #211, #219, #168, .T. ) ;
#184 = DIRECTION ( 'NONE',  ( -3.491481338843133355E-15, 1.224646799147353207E-16, -1.000000000000000000 ) ) ;
#185 = CARTESIAN_POINT ( 'NONE',  ( 2.073939915272820834E-13, 2.999999999999993783, 59.39999999999999147 ) ) ;
#186 =( NAMED_UNIT ( * ) SI_UNIT ( $, .STERADIAN. ) SOLID_ANGLE_UNIT ( ) );
#187 = CARTESIAN_POINT ( 'NONE',  ( 1.282749433769086881E-30, 2.999999999999998224, 3.673940397442057896E-16 ) ) ;
#188 = PERSON_AND_ORGANIZATION_ROLE ( 'design_owner' ) ;
#189 = CARTESIAN_POINT ( 'NONE',  ( 6.982962677686266711E-14, -2.000000000000001332, 20.00000000000000000 ) ) ;
#190 = ORIENTED_EDGE ( 'NONE', *, *, #44, .F. ) ;
#191 = PERSON_AND_ORGANIZATION ( #292, #158 ) ;
#192 = AXIS2_PLACEMENT_3D ( 'NONE', #96, #205, #229 ) ;
#193 = CC_DESIGN_SECURITY_CLASSIFICATION ( #169, ( #22 ) ) ;
#194 = EDGE_LOOP ( 'NONE', ( #47, #171, #18, #76 ) ) ;
#195 = PERSON_AND_ORGANIZATION ( #292, #158 ) ;
#196 = PERSON_AND_ORGANIZATION ( #292, #158 ) ;
#197 = ORIENTED_EDGE ( 'NONE', *, *, #132, .F. ) ;
#198 = DIRECTION ( 'NONE',  ( 0.000000000000000000, 1.000000000000000000, 0.000000000000000000 ) ) ;
#199 = AXIS2_PLACEMENT_3D ( 'NONE', #43, #163, #106 ) ;
#200 = APPROVAL ( #112, 'UNSPECIFIED' ) ;
#201 = CIRCLE ( 'NONE', #192, 2.999999999999998224 ) ;
#202 = AXIS2_PLACEMENT_3D ( 'NONE', #203, #66, #296 ) ;
#203 = CARTESIAN_POINT ( 'NONE',  ( 6.982962677686266711E-14, -2.552934622337390728E-15, 20.00000000000000000 ) ) ;
#204 = DIRECTION ( 'NONE',  ( 3.491481338843133355E-15, -1.276467311168695266E-16, 1.000000000000000000 ) ) ;
#205 = DIRECTION ( 'NONE',  ( -3.491481338843133355E-15, 1.276467311168695266E-16, -1.000000000000000000 ) ) ;
#206 = AXIS2_PLACEMENT_3D ( 'NONE', #333, #355, #79 ) ;
#207 = APPROVAL_PERSON_ORGANIZATION ( #196, #200, #218 ) ;
#208 = CARTESIAN_POINT ( 'NONE',  ( 2.094888803305880013E-13, -7.347880794884118356E-15, 60.00000000000000000 ) ) ;
#209 = LINE ( 'NONE', #131, #129 ) ;
#210 = PERSON_AND_ORGANIZATION ( #292, #158 ) ;
#211 = VERTEX_POINT ( 'NONE', #32 ) ;
#212 = APPLICATION_PROTOCOL_DEFINITION ( 'international standard', 'config_control_design', 1994, #25 ) ;
#213 = CARTESIAN_POINT ( 'NONE',  ( 2.094888803305880013E-13, -7.347880794884118356E-15, 60.00000000000000000 ) ) ;
#214 = ADVANCED_FACE ( 'NONE', ( #37 ), #315, .T. ) ;
#215 = APPLICATION_PROTOCOL_DEFINITION ( 'international standard', 'config_control_design', 1994, #90 ) ;
#216 = AXIS2_PLACEMENT_3D ( 'NONE', #339, #62, #177 ) ;
#217 = EDGE_LOOP ( 'NONE', ( #175, #360, #352, #190 ) ) ;
#218 = APPROVAL_ROLE ( '' ) ;
#219 = VERTEX_POINT ( 'NONE', #1 ) ;
#220 = VERTEX_POINT ( 'NONE', #127 ) ;
#221 = APPROVAL_DATE_TIME ( #87, #200 ) ;
#222 = ADVANCED_FACE ( 'NONE', ( #340 ), #325, .T. ) ;
#223 = CARTESIAN_POINT ( 'NONE',  ( -4.134412013878834135E-30, -1.999999999999999112, -1.184142663998522013E-15 ) ) ;
#224 = AXIS2_PLACEMENT_3D ( 'NONE', #335, #312, #109 ) ;
#225 = EDGE_CURVE ( 'NONE', #220, #277, #201, .T. ) ;
#226 = PLANE ( 'NONE',  #216 ) ;
#227 = CYLINDRICAL_SURFACE ( 'NONE', #115, 1.999999999999999112 ) ;
#228 = DIRECTION ( 'NONE',  ( -3.491481338843133355E-15, 1.224646799147353207E-16, -1.000000000000000000 ) ) ;
#229 = DIRECTION ( 'NONE',  ( -2.042810365310288034E-14, -1.000000000000000000, 0.000000000000000000 ) ) ;
#230 = CARTESIAN_POINT ( 'NONE',  ( 1.454943960669370669E-13, -3.000000000000008882, 59.39999999999999147 ) ) ;
#231 = DIRECTION ( 'NONE',  ( 0.000000000000000000, -1.000000000000000000, 0.000000000000000000 ) ) ;
#232 =( NAMED_UNIT ( * ) PLANE_ANGLE_UNIT ( ) SI_UNIT ( $, .RADIAN. ) );
#233 = CIRCLE ( 'NONE', #81, 2.999999999999998224 ) ;
#234 = LOCAL_TIME ( 9, 9, 0.000000000000000000, #85 ) ;
#235 = DIRECTION ( 'NONE',  ( -2.468850131082271655E-15, 0.7071067811865455743, -0.7071067811865493491 ) ) ;
#236 = FACE_OUTER_BOUND ( 'NONE', #8, .T. ) ;
#237 = PRODUCT_RELATED_PRODUCT_CATEGORY ( 'detail', '', ( #179 ) ) ;
#238 = DIRECTION ( 'NONE',  ( 1.000000000000000000, 0.000000000000000000, 0.000000000000000000 ) ) ;
#239 = CARTESIAN_POINT ( 'NONE',  ( 2.097827955623833808E-13, -2.400000000000008793, 60.00000000000000000 ) ) ;
#240 = LOCAL_TIME ( 9, 9, 0.000000000000000000, #42 ) ;
#241 = ORIENTED_EDGE ( 'NONE', *, *, #225, .T. ) ;
#242 = PERSON_AND_ORGANIZATION_ROLE ( 'creator' ) ;
#243 = FACE_OUTER_BOUND ( 'NONE', #137, .T. ) ;
#244 = APPROVAL ( #276, 'UNSPECIFIED' ) ;
#245 = ORIENTED_EDGE ( 'NONE', *, *, #53, .T. ) ;
#246 = PERSON_AND_ORGANIZATION ( #292, #158 ) ;
#247 = EDGE_CURVE ( 'NONE', #277, #220, #233, .T. ) ;
#248 = ORIENTED_EDGE ( 'NONE', *, *, #135, .F. ) ;
#249 = ORIENTED_EDGE ( 'NONE', *, *, #301, .F. ) ;
#250 = DATE_TIME_ROLE ( 'classification_date' ) ;
#251 = VECTOR ( 'NONE', #261, 1000.000000000000114 ) ;
#252 = APPROVAL_PERSON_ORGANIZATION ( #246, #257, #10 ) ;
#253 = ORIENTED_EDGE ( 'NONE', *, *, #30, .T. ) ;
#254 = CALENDAR_DATE ( 2023, 31, 3 ) ;
#255 = DIRECTION ( 'NONE',  ( -3.491481338843133355E-15, 1.224646799147353207E-16, -1.000000000000000000 ) ) ;
#256 = DIRECTION ( 'NONE',  ( -4.456761796588770537E-31, -1.000000000000000000, -1.276467311168695266E-16 ) ) ;
#257 = APPROVAL ( #162, 'UNSPECIFIED' ) ;
#258 = ADVANCED_BREP_SHAPE_REPRESENTATION ( '372738', ( #26, #281, #123 ), #2 ) ;
#259 = EDGE_CURVE ( 'NONE', #55, #219, #209, .T. ) ;
#260 = FACE_OUTER_BOUND ( 'NONE', #336, .T. ) ;
#261 = DIRECTION ( 'NONE',  ( 3.372511997194914833E-15, -0.2588190451025215721, 0.9659258262890679791 ) ) ;
#262 = EDGE_CURVE ( 'NONE', #134, #277, #343, .T. ) ;
#263 = CIRCLE ( 'NONE', #224, 1.999999999999998668 ) ;
#264 = LOCAL_TIME ( 9, 9, 0.000000000000000000, #15 ) ;
#265 = ORIENTED_EDGE ( 'NONE', *, *, #126, .F. ) ;
#266 = CARTESIAN_POINT ( 'NONE',  ( 0.000000000000000000, 0.000000000000000000, 0.000000000000000000 ) ) ;
#267 = DIRECTION ( 'NONE',  ( -3.491481338843133355E-15, 1.224646799147353207E-16, -1.000000000000000000 ) ) ;
#268 = DIRECTION ( 'NONE',  ( -3.491481338843133355E-15, 1.276467311168695266E-16, -1.000000000000000000 ) ) ;
#269 = DIRECTION ( 'NONE',  ( 3.491481338843133355E-15, -1.276467311168695266E-16, 1.000000000000000000 ) ) ;
#270 = DIRECTION ( 'NONE',  ( 3.491481338843133355E-15, -1.276467311168695266E-16, 1.000000000000000000 ) ) ;
#271 = LOCAL_TIME ( 9, 9, 0.000000000000000000, #278 ) ;
#272 = LINE ( 'NONE', #346, #56 ) ;
#273 = PERSON_AND_ORGANIZATION_ROLE ( 'design_supplier' ) ;
#274 = DATE_AND_TIME ( #9, #240 ) ;
#275 = EDGE_LOOP ( 'NONE', ( #124, #253, #280, #356 ) ) ;
#276 = APPROVAL_STATUS ( 'not_yet_approved' ) ;
#277 = VERTEX_POINT ( 'NONE', #67 ) ;
#278 = COORDINATED_UNIVERSAL_TIME_OFFSET ( 1, 0, .AHEAD. ) ;
#279 = DESIGN_CONTEXT ( 'detailed design', #25, 'design' ) ;
#280 = ORIENTED_EDGE ( 'NONE', *, *, #44, .T. ) ;
#281 = MANIFOLD_SOLID_BREP ( 'Corps-Déplacer/Copier1[2]', #20 ) ;
#282 = DIRECTION ( 'NONE',  ( 4.275831445896958607E-31, 1.000000000000000000, 1.224646799147353207E-16 ) ) ;
#283 = EDGE_CURVE ( 'NONE', #61, #277, #69, .T. ) ;
#284 = VECTOR ( 'NONE', #121, 1000.000000000000000 ) ;
#285 = DIRECTION ( 'NONE',  ( -3.491481338843133355E-15, 1.224646799147353207E-16, -1.000000000000000000 ) ) ;
#286 = EDGE_LOOP ( 'NONE', ( #108, #3 ) ) ;
#287 = CARTESIAN_POINT ( 'NONE',  ( -6.413839710158237013E-31, 0.000000000000000000, -1.836996703606440502E-16 ) ) ;
#288 = DIRECTION ( 'NONE',  ( 0.000000000000000000, 1.000000000000000000, 0.000000000000000000 ) ) ;
#289 = AXIS2_PLACEMENT_3D ( 'NONE', #86, #285, #198 ) ;
#290 = CC_DESIGN_APPROVAL ( #200, ( #169 ) ) ;
#291 = FACE_OUTER_BOUND ( 'NONE', #217, .T. ) ;
#292 = PERSON ( 'UNSPECIFIED', 'UNSPECIFIED', 'UNSPECIFIED', ('UNSPECIFIED'), ('UNSPECIFIED'), ('UNSPECIFIED') ) ;
#293 = EDGE_LOOP ( 'NONE', ( #139, #111 ) ) ;
#294 = FACE_OUTER_BOUND ( 'NONE', #19, .T. ) ;
#295 = EDGE_CURVE ( 'NONE', #61, #13, #57, .T. ) ;
#296 = DIRECTION ( 'NONE',  ( 0.000000000000000000, -1.000000000000000000, 0.000000000000000000 ) ) ;
#297 = AXIS2_PLACEMENT_3D ( 'NONE', #4, #302, #99 ) ;
#298 = CARTESIAN_POINT ( 'NONE',  ( 0.000000000000000000, 0.000000000000000000, 0.000000000000000000 ) ) ;
#299 =( LENGTH_UNIT ( ) NAMED_UNIT ( * ) SI_UNIT ( .MILLI., .METRE. ) );
#300 = PLANE ( 'NONE',  #142 ) ;
#301 = EDGE_CURVE ( 'NONE', #134, #329, #143, .T. ) ;
#302 = DIRECTION ( 'NONE',  ( 3.491481338843133355E-15, -1.276467311168695266E-16, 1.000000000000000000 ) ) ;
#303 = CARTESIAN_POINT ( 'NONE',  ( 6.982962677686266711E-14, -2.552934622337390728E-15, 20.00000000000000000 ) ) ;
#304 = PERSON_AND_ORGANIZATION ( #292, #158 ) ;
#305 = DIRECTION ( 'NONE',  ( 3.491481338843133355E-15, -1.224646799147353207E-16, 1.000000000000000000 ) ) ;
#306 = LINE ( 'NONE', #117, #153 ) ;
#307 = ORIENTED_EDGE ( 'NONE', *, *, #225, .F. ) ;
#308 = PERSON_AND_ORGANIZATION_ROLE ( 'creator' ) ;
#309 = AXIS2_PLACEMENT_3D ( 'NONE', #337, #64, #29 ) ;
#310 = DIRECTION ( 'NONE',  ( -3.491481338843133355E-15, 1.224646799147353207E-16, -1.000000000000000000 ) ) ;
#311 = PERSON_AND_ORGANIZATION_ROLE ( 'classification_officer' ) ;
#312 = DIRECTION ( 'NONE',  ( 3.491481338843133355E-15, -1.276467311168695266E-16, 1.000000000000000000 ) ) ;
#313 = ORIENTED_EDGE ( 'NONE', *, *, #262, .F. ) ;
#314 = CARTESIAN_POINT ( 'NONE',  ( -6.413839710158237013E-31, 0.000000000000000000, -1.836996703606440502E-16 ) ) ;
#315 = CONICAL_SURFACE ( 'NONE', #344, 6.999999999999999112, 0.2617993877991502405 ) ;
#316 = ORIENTED_EDGE ( 'NONE', *, *, #161, .T. ) ;
#317 = CARTESIAN_POINT ( 'NONE',  ( 2.094888803305880013E-13, -7.347880794884118356E-15, 60.00000000000000000 ) ) ;
#318 = CONICAL_SURFACE ( 'NONE', #149, 2.400000000000001688, 0.7853981633974453924 ) ;
#319 = DIRECTION ( 'NONE',  ( 0.000000000000000000, 1.000000000000000000, 0.000000000000000000 ) ) ;
#320 = DIRECTION ( 'NONE',  ( 0.000000000000000000, -1.000000000000000000, 0.000000000000000000 ) ) ;
#321 = ADVANCED_FACE ( 'NONE', ( #323 ), #152, .T. ) ;
#322 = AXIS2_PLACEMENT_3D ( 'NONE', #94, #228, #319 ) ;
#323 = FACE_OUTER_BOUND ( 'NONE', #80, .T. ) ;
#324 = ORIENTED_EDGE ( 'NONE', *, *, #247, .T. ) ;
#325 = CYLINDRICAL_SURFACE ( 'NONE', #63, 2.999999999999998224 ) ;
#326 = CIRCLE ( 'NONE', #110, 1.999999999999998668 ) ;
#327 = DIRECTION ( 'NONE',  ( 0.000000000000000000, 0.000000000000000000, 1.000000000000000000 ) ) ;
#328 = PLANE ( 'NONE',  #73 ) ;
#329 = VERTEX_POINT ( 'NONE', #36 ) ;
#330 = ORIENTED_EDGE ( 'NONE', *, *, #295, .F. ) ;
#331 = DATE_AND_TIME ( #166, #271 ) ;
#332 = CIRCLE ( 'NONE', #199, 1.999999999999999112 ) ;
#333 = CARTESIAN_POINT ( 'NONE',  ( 2.073939915272820834E-13, -7.274401986935278213E-15, 59.39999999999999147 ) ) ;
#334 = PERSON_AND_ORGANIZATION ( #292, #158 ) ;
#335 = CARTESIAN_POINT ( 'NONE',  ( 6.982962677686266711E-14, -2.552934622337390728E-15, 20.00000000000000000 ) ) ;
#336 = EDGE_LOOP ( 'NONE', ( #248, #31, #27, #324 ) ) ;
#337 = CARTESIAN_POINT ( 'NONE',  ( 1.349815555280683623E-13, -4.934855052078584576E-15, 38.66025403784433223 ) ) ;
#338 = APPROVAL_PERSON_ORGANIZATION ( #304, #244, #82 ) ;
#339 = CARTESIAN_POINT ( 'NONE',  ( -4.275916139802294913E-31, 1.499789489284924339E-32, -1.224671056445937021E-16 ) ) ;
#340 = FACE_OUTER_BOUND ( 'NONE', #194, .T. ) ;
#341 = DIRECTION ( 'NONE',  ( 0.000000000000000000, -1.000000000000000000, 0.000000000000000000 ) ) ;
#342 = LINE ( 'NONE', #239, #88 ) ;
#343 = LINE ( 'NONE', #41, #251 ) ;
#344 = AXIS2_PLACEMENT_3D ( 'NONE', #155, #270, #341 ) ;
#345 = APPROVAL_DATE_TIME ( #136, #244 ) ;
#346 = CARTESIAN_POINT ( 'NONE',  ( -1.532736330333577546E-30, -1.999999999999999112, -4.389931325943830047E-16 ) ) ;
#347 = AXIS2_PLACEMENT_3D ( 'NONE', #208, #267, #181 ) ;
#348 = AXIS2_PLACEMENT_3D ( 'NONE', #172, #305, #51 ) ;
#349 = LOCAL_TIME ( 9, 9, 0.000000000000000000, #354 ) ;
#350 = CARTESIAN_POINT ( 'NONE',  ( 2.087720905647048222E-13, -2.400000000000008793, 60.00000000000000000 ) ) ;
#351 = CC_DESIGN_PERSON_AND_ORGANIZATION_ASSIGNMENT ( #210, #188, ( #179 ) ) ;
#352 = ORIENTED_EDGE ( 'NONE', *, *, #183, .F. ) ;
#353 = EDGE_LOOP ( 'NONE', ( #197, #164 ) ) ;
#354 = COORDINATED_UNIVERSAL_TIME_OFFSET ( 1, 0, .AHEAD. ) ;
#355 = DIRECTION ( 'NONE',  ( -3.491481338843133355E-15, 1.224646799147353207E-16, -1.000000000000000000 ) ) ;
#356 = ORIENTED_EDGE ( 'NONE', *, *, #24, .F. ) ;
#357 = ORIENTED_EDGE ( 'NONE', *, *, #91, .F. ) ;
#358 = CALENDAR_DATE ( 2023, 31, 3 ) ;
#359 = CC_DESIGN_APPROVAL ( #244, ( #77 ) ) ;
#360 = ORIENTED_EDGE ( 'NONE', *, *, #259, .T. ) ;
#361 = EDGE_LOOP ( 'NONE', ( #146, #165, #241, #313 ) ) ;
#362 = CC_DESIGN_PERSON_AND_ORGANIZATION_ASSIGNMENT ( #159, #273, ( #22 ) ) ;
#363 = FACE_OUTER_BOUND ( 'NONE', #353, .T. ) ;
ENDSEC;
END-ISO-10303-21;
