ISO-10303-21;
HEADER;
FILE_DESCRIPTION (( 'STEP AP203' ),
    '1' );
FILE_NAME ('372737.step',
    '2023-03-31T07:09:00',
    ( '' ),
    ( '' ),
    'SwSTEP 2.0',
    'SolidWorks 2022',
    '' );
FILE_SCHEMA (( 'CONFIG_CONTROL_DESIGN' ));
ENDSEC;

DATA;
#1 = CARTESIAN_POINT ( 'NONE',  ( -4.134412013878834135E-30, -1.999999999999999112, -1.184142663998522013E-15 ) ) ;
#2 = ORIENTED_EDGE ( 'NONE', *, *, #133, .F. ) ;
#3 = ORIENTED_EDGE ( 'NONE', *, *, #253, .F. ) ;
#4 = APPROVAL_STATUS ( 'not_yet_approved' ) ;
#5 = MANIFOLD_SOLID_BREP ( 'Corps-Déplacer/Copier1[2]', #349 ) ;
#6 = DIRECTION ( 'NONE',  ( -3.491481338843133355E-15, 1.224646799147353207E-16, -1.000000000000000000 ) ) ;
#7 = EDGE_LOOP ( 'NONE', ( #218, #308 ) ) ;
#8 = PERSON ( 'UNSPECIFIED', 'UNSPECIFIED', 'UNSPECIFIED', ('UNSPECIFIED'), ('UNSPECIFIED'), ('UNSPECIFIED') ) ;
#9 = CIRCLE ( 'NONE', #67, 2.999999999999994671 ) ;
#10 = CIRCLE ( 'NONE', #203, 1.999999999999996225 ) ;
#11 = CIRCLE ( 'NONE', #78, 1.999999999999996225 ) ;
#12 = LINE ( 'NONE', #254, #97 ) ;
#13 = DIRECTION ( 'NONE',  ( -2.382254525458723780E-15, -0.7071067811865453523, -0.7071067811865496822 ) ) ;
#14 =( NAMED_UNIT ( * ) PLANE_ANGLE_UNIT ( ) SI_UNIT ( $, .RADIAN. ) );
#15 = CARTESIAN_POINT ( 'NONE',  ( 1.745740669421566678E-13, -6.123233995736766085E-15, 50.00000000000000000 ) ) ;
#16 = PERSON_AND_ORGANIZATION_ROLE ( 'design_supplier' ) ;
#17 = EDGE_CURVE ( 'NONE', #64, #32, #250, .T. ) ;
#18 = ORGANIZATION ( 'UNSPECIFIED', 'UNSPECIFIED', '' ) ;
#19 = DIRECTION ( 'NONE',  ( -3.491481338843133355E-15, 1.276467311168695266E-16, -1.000000000000000000 ) ) ;
#20 = ADVANCED_FACE ( 'NONE', ( #129 ), #333, .T. ) ;
#21 = CARTESIAN_POINT ( 'NONE',  ( 3.491481338843133986E-14, -1.276467311168695561E-15, 10.00000000000000178 ) ) ;
#22 = VECTOR ( 'NONE', #57, 1000.000000000000000 ) ;
#23 = CARTESIAN_POINT ( 'NONE',  ( -6.413839710158237013E-31, 0.000000000000000000, -1.836996703606440502E-16 ) ) ;
#24 = CLOSED_SHELL ( 'NONE', ( #20, #49, #320, #247, #140, #240, #303, #196 ) ) ;
#25 = DIRECTION ( 'NONE',  ( -4.456761796588772289E-31, -1.000000000000000000, -1.276467311168695759E-16 ) ) ;
#26 = LOCAL_TIME ( 9, 9, 0.000000000000000000, #139 ) ;
#27 = EDGE_CURVE ( 'NONE', #168, #35, #318, .T. ) ;
#28 = CARTESIAN_POINT ( 'NONE',  ( 3.491481338843133986E-14, -1.999999999999997335, 10.00000000000000178 ) ) ;
#29 = ORIENTED_EDGE ( 'NONE', *, *, #149, .F. ) ;
#30 = FACE_OUTER_BOUND ( 'NONE', #263, .T. ) ;
#31 = ORIENTED_EDGE ( 'NONE', *, *, #224, .F. ) ;
#32 = VERTEX_POINT ( 'NONE', #210 ) ;
#33 = CARTESIAN_POINT ( 'NONE',  ( 1.724791781388508004E-13, -6.049755187787925154E-15, 49.39999999999999858 ) ) ;
#34 = AXIS2_PLACEMENT_3D ( 'NONE', #206, #61, #177 ) ;
#35 = VERTEX_POINT ( 'NONE', #328 ) ;
#36 = CALENDAR_DATE ( 2023, 31, 3 ) ;
#37 = CC_DESIGN_PERSON_AND_ORGANIZATION_ASSIGNMENT ( #197, #278, ( #307 ) ) ;
#38 = CARTESIAN_POINT ( 'NONE',  ( 1.748679821739520473E-13, -2.400000000000003908, 50.00000000000000000 ) ) ;
#39 = ORIENTED_EDGE ( 'NONE', *, *, #183, .T. ) ;
#40 = CALENDAR_DATE ( 2023, 31, 3 ) ;
#41 = CIRCLE ( 'NONE', #123, 1.999999999999996225 ) ;
#42 = CC_DESIGN_APPROVAL ( #347, ( #222 ) ) ;
#43 = VERTEX_POINT ( 'NONE', #201 ) ;
#44 = EDGE_CURVE ( 'NONE', #341, #64, #10, .T. ) ;
#45 = DATE_AND_TIME ( #36, #301 ) ;
#46 = APPROVAL_STATUS ( 'not_yet_approved' ) ;
#47 = DIRECTION ( 'NONE',  ( 0.000000000000000000, 1.000000000000000000, 0.000000000000000000 ) ) ;
#48 = SHAPE_DEFINITION_REPRESENTATION ( #289, #233 ) ;
#49 = ADVANCED_FACE ( 'NONE', ( #232 ), #298, .T. ) ;
#50 = CIRCLE ( 'NONE', #353, 2.999999999999997335 ) ;
#51 = APPROVAL_DATE_TIME ( #319, #327 ) ;
#52 = VECTOR ( 'NONE', #355, 1000.000000000000114 ) ;
#53 = CIRCLE ( 'NONE', #342, 2.999999999999997335 ) ;
#54 = EDGE_CURVE ( 'NONE', #326, #32, #9, .T. ) ;
#55 = ORIENTED_EDGE ( 'NONE', *, *, #44, .F. ) ;
#56 = DIRECTION ( 'NONE',  ( 0.000000000000000000, -1.000000000000000000, 0.000000000000000000 ) ) ;
#57 = DIRECTION ( 'NONE',  ( 3.404208188709233130E-15, 0.2588190451025213501, 0.9659258262890680902 ) ) ;
#58 = DIRECTION ( 'NONE',  ( 3.491481338843133355E-15, -1.224646799147353207E-16, 1.000000000000000000 ) ) ;
#59 = ORIENTED_EDGE ( 'NONE', *, *, #281, .T. ) ;
#60 = CARTESIAN_POINT ( 'NONE',  ( 0.000000000000000000, 0.000000000000000000, 0.000000000000000000 ) ) ;
#61 = DIRECTION ( 'NONE',  ( -3.491481338843133355E-15, 1.224646799147353207E-16, -1.000000000000000000 ) ) ;
#62 = VECTOR ( 'NONE', #134, 1000.000000000000000 ) ;
#63 = FACE_OUTER_BOUND ( 'NONE', #84, .T. ) ;
#64 = VERTEX_POINT ( 'NONE', #103 ) ;
#65 = CARTESIAN_POINT ( 'NONE',  ( 1.282749433769085480E-30, 2.999999999999994671, 3.673940397442053459E-16 ) ) ;
#66 = APPROVAL_STATUS ( 'not_yet_approved' ) ;
#67 = AXIS2_PLACEMENT_3D ( 'NONE', #150, #19, #316 ) ;
#68 = APPROVAL_DATE_TIME ( #45, #347 ) ;
#69 = ORIENTED_EDGE ( 'NONE', *, *, #363, .F. ) ;
#70 = DIRECTION ( 'NONE',  ( 0.000000000000000000, 1.000000000000000000, 0.000000000000000000 ) ) ;
#71 = CC_DESIGN_PERSON_AND_ORGANIZATION_ASSIGNMENT ( #144, #16, ( #222 ) ) ;
#72 = COORDINATED_UNIVERSAL_TIME_OFFSET ( 1, 0, .AHEAD. ) ;
#73 = CC_DESIGN_SECURITY_CLASSIFICATION ( #217, ( #222 ) ) ;
#74 = DATE_AND_TIME ( #40, #26 ) ;
#75 = CARTESIAN_POINT ( 'NONE',  ( 4.794519913867246377E-14, -1.752851397116933700E-15, 13.73205080756886076 ) ) ;
#76 = PERSON_AND_ORGANIZATION_ROLE ( 'classification_officer' ) ;
#77 = ORIENTED_EDGE ( 'NONE', *, *, #115, .F. ) ;
#78 = AXIS2_PLACEMENT_3D ( 'NONE', #88, #293, #56 ) ;
#79 = DIRECTION ( 'NONE',  ( 3.491481338843133355E-15, -1.276467311168695266E-16, 1.000000000000000000 ) ) ;
#80 = DIRECTION ( 'NONE',  ( 0.000000000000000000, -1.000000000000000000, 0.000000000000000000 ) ) ;
#81 = CARTESIAN_POINT ( 'NONE',  ( 1.724791781388508004E-13, -6.049755187787925154E-15, 49.39999999999999858 ) ) ;
#82 = ORIENTED_EDGE ( 'NONE', *, *, #17, .F. ) ;
#83 = DIRECTION ( 'NONE',  ( 3.491481338843133355E-15, -1.276467311168695266E-16, 1.000000000000000000 ) ) ;
#84 = EDGE_LOOP ( 'NONE', ( #299, #31 ) ) ;
#85 = AXIS2_PLACEMENT_3D ( 'NONE', #15, #193, #313 ) ;
#86 = DIRECTION ( 'NONE',  ( 3.491481338843133355E-15, -1.276467311168695266E-16, 1.000000000000000000 ) ) ;
#87 = ORIENTED_EDGE ( 'NONE', *, *, #290, .F. ) ;
#88 = CARTESIAN_POINT ( 'NONE',  ( 3.491481338843133986E-14, -1.276467311168695561E-15, 10.00000000000000178 ) ) ;
#89 = ORIENTED_EDGE ( 'NONE', *, *, #100, .T. ) ;
#90 = DATE_AND_TIME ( #190, #239 ) ;
#91 = COORDINATED_UNIVERSAL_TIME_OFFSET ( 1, 0, .AHEAD. ) ;
#92 = APPLICATION_CONTEXT ( 'configuration controlled 3d designs of mechanical parts and assemblies' ) ;
#93 = APPROVAL_ROLE ( '' ) ;
#94 = EDGE_CURVE ( 'NONE', #32, #326, #202, .T. ) ;
#95 = MECHANICAL_CONTEXT ( 'NONE', #92, 'mechanical' ) ;
#96 = DIRECTION ( 'NONE',  ( 1.000000000000000000, 0.000000000000000000, 0.000000000000000000 ) ) ;
#97 = VECTOR ( 'NONE', #220, 1000.000000000000000 ) ;
#98 = DIRECTION ( 'NONE',  ( 0.000000000000000000, -1.000000000000000000, 0.000000000000000000 ) ) ;
#99 = APPROVAL_ROLE ( '' ) ;
#100 = EDGE_CURVE ( 'NONE', #43, #118, #314, .T. ) ;
#101 = ORIENTED_EDGE ( 'NONE', *, *, #94, .T. ) ;
#102 = AXIS2_PLACEMENT_3D ( 'NONE', #137, #58, #182 ) ;
#103 = CARTESIAN_POINT ( 'NONE',  ( 4.173616796333873337E-14, 1.999999999999994893, 10.00000000000000178 ) ) ;
#104 = LOCAL_TIME ( 9, 9, 0.000000000000000000, #351 ) ;
#105 = CC_DESIGN_PERSON_AND_ORGANIZATION_ASSIGNMENT ( #223, #315, ( #259 ) ) ;
#106 = DIRECTION ( 'NONE',  ( 0.000000000000000000, -1.000000000000000000, 0.000000000000000000 ) ) ;
#107 = CARTESIAN_POINT ( 'NONE',  ( -3.243059654561080202E-30, 9.511590187700545593E-32, -9.288492017647830582E-16 ) ) ;
#108 = APPROVAL_PERSON_ORGANIZATION ( #312, #126, #93 ) ;
#109 = DIRECTION ( 'NONE',  ( -4.456761796588770537E-31, -1.000000000000000000, -1.276467311168695512E-16 ) ) ;
#110 = FACE_OUTER_BOUND ( 'NONE', #214, .T. ) ;
#111 = ORIENTED_EDGE ( 'NONE', *, *, #94, .F. ) ;
#112 = DIRECTION ( 'NONE',  ( 3.491481338843133355E-15, -1.276467311168695266E-16, 1.000000000000000000 ) ) ;
#113 = CARTESIAN_POINT ( 'NONE',  ( 1.000667421396370540E-13, -7.000000000000000000, 28.66025403784433578 ) ) ;
#114 = DIRECTION ( 'NONE',  ( 3.491481338843133355E-15, -1.224646799147353207E-16, 1.000000000000000000 ) ) ;
#115 = EDGE_CURVE ( 'NONE', #118, #171, #282, .T. ) ;
#116 = DIRECTION ( 'NONE',  ( 0.000000000000000000, 1.000000000000000000, 0.000000000000000000 ) ) ;
#117 = CARTESIAN_POINT ( 'NONE',  ( 3.491481338843133986E-14, -1.999999999999997335, 10.00000000000000178 ) ) ;
#118 = VERTEX_POINT ( 'NONE', #121 ) ;
#119 = ORIENTED_EDGE ( 'NONE', *, *, #257, .F. ) ;
#120 = CARTESIAN_POINT ( 'NONE',  ( 1.105795826785058217E-13, -2.999999999999996447, 13.73205080756886076 ) ) ;
#121 = CARTESIAN_POINT ( 'NONE',  ( 1.738572771762734887E-13, -2.400000000000003908, 50.00000000000000000 ) ) ;
#122 = PERSON_AND_ORGANIZATION ( #8, #18 ) ;
#123 = AXIS2_PLACEMENT_3D ( 'NONE', #145, #277, #80 ) ;
#124 = CC_DESIGN_PERSON_AND_ORGANIZATION_ASSIGNMENT ( #166, #283, ( #222 ) ) ;
#125 = EDGE_LOOP ( 'NONE', ( #151, #279 ) ) ;
#126 = APPROVAL ( #4, 'UNSPECIFIED' ) ;
#127 = CIRCLE ( 'NONE', #291, 1.999999999999996225 ) ;
#128 = AXIS2_PLACEMENT_3D ( 'NONE', #212, #332, #302 ) ;
#129 = FACE_OUTER_BOUND ( 'NONE', #186, .T. ) ;
#130 = APPLICATION_CONTEXT ( 'configuration controlled 3d designs of mechanical parts and assemblies' ) ;
#131 = DIRECTION ( 'NONE',  ( 3.372511997194914833E-15, -0.2588190451025215166, 0.9659258262890679791 ) ) ;
#132 = CARTESIAN_POINT ( 'NONE',  ( 1.745740669421566678E-13, 1.799711739194218455E-32, 50.00000000000000000 ) ) ;
#133 = EDGE_CURVE ( 'NONE', #64, #341, #41, .T. ) ;
#134 = DIRECTION ( 'NONE',  ( -3.491481338843133355E-15, 1.224646799147353207E-16, -1.000000000000000000 ) ) ;
#135 = ORIENTED_EDGE ( 'NONE', *, *, #115, .T. ) ;
#136 = LINE ( 'NONE', #65, #62 ) ;
#137 = CARTESIAN_POINT ( 'NONE',  ( 3.491481338843133986E-14, 2.249639673992779296E-32, 10.00000000000000178 ) ) ;
#138 = ORIENTED_EDGE ( 'NONE', *, *, #148, .F. ) ;
#139 = COORDINATED_UNIVERSAL_TIME_OFFSET ( 1, 0, .AHEAD. ) ;
#140 = ADVANCED_FACE ( 'NONE', ( #296 ), #143, .T. ) ;
#141 = ORIENTED_EDGE ( 'NONE', *, *, #236, .F. ) ;
#142 = ORIENTED_EDGE ( 'NONE', *, *, #149, .T. ) ;
#143 = CONICAL_SURFACE ( 'NONE', #352, 2.399999999999997691, 0.7853981633974453924 ) ;
#144 = PERSON_AND_ORGANIZATION ( #8, #18 ) ;
#145 = CARTESIAN_POINT ( 'NONE',  ( 3.491481338843133986E-14, -1.276467311168695561E-15, 10.00000000000000178 ) ) ;
#146 =( LENGTH_UNIT ( ) NAMED_UNIT ( * ) SI_UNIT ( .MILLI., .METRE. ) );
#147 = CALENDAR_DATE ( 2023, 31, 3 ) ;
#148 = EDGE_CURVE ( 'NONE', #43, #284, #155, .T. ) ;
#149 = EDGE_CURVE ( 'NONE', #35, #321, #12, .T. ) ;
#150 = CARTESIAN_POINT ( 'NONE',  ( 4.794519913867246377E-14, -1.752851397116933700E-15, 13.73205080756886076 ) ) ;
#151 = ORIENTED_EDGE ( 'NONE', *, *, #100, .F. ) ;
#152 = DIRECTION ( 'NONE',  ( 3.491481338843133355E-15, -1.276467311168695266E-16, 1.000000000000000000 ) ) ;
#153 = FACE_OUTER_BOUND ( 'NONE', #125, .T. ) ;
#154 = EDGE_CURVE ( 'NONE', #208, #321, #127, .T. ) ;
#155 = LINE ( 'NONE', #354, #52 ) ;
#156 = CYLINDRICAL_SURFACE ( 'NONE', #164, 1.999999999999997335 ) ;
#157 = CYLINDRICAL_SURFACE ( 'NONE', #226, 1.999999999999997335 ) ;
#158 = EDGE_CURVE ( 'NONE', #118, #43, #178, .T. ) ;
#159 = EDGE_LOOP ( 'NONE', ( #89, #135, #69, #138 ) ) ;
#160 = PLANE ( 'NONE',  #325 ) ;
#161 = ORIENTED_EDGE ( 'NONE', *, *, #290, .T. ) ;
#162 = CARTESIAN_POINT ( 'NONE',  ( 3.491481338843133986E-14, 2.249639673992779296E-32, 10.00000000000000178 ) ) ;
#163 = AXIS2_PLACEMENT_3D ( 'NONE', #207, #114, #211 ) ;
#164 = AXIS2_PLACEMENT_3D ( 'NONE', #219, #79, #336 ) ;
#165 = ORIENTED_EDGE ( 'NONE', *, *, #253, .T. ) ;
#166 = PERSON_AND_ORGANIZATION ( #8, #18 ) ;
#167 = ORIENTED_EDGE ( 'NONE', *, *, #17, .T. ) ;
#168 = VERTEX_POINT ( 'NONE', #1 ) ;
#169 = DATE_TIME_ROLE ( 'creation_date' ) ;
#170 = UNCERTAINTY_MEASURE_WITH_UNIT (LENGTH_MEASURE( 1.000000000000000082E-05 ), #146, 'distance_accuracy_value', 'NONE');
#171 = VERTEX_POINT ( 'NONE', #185 ) ;
#172 = CARTESIAN_POINT ( 'NONE',  ( 1.770233605404514654E-14, 1.999999999999994893, 10.00000000000000178 ) ) ;
#173 = ADVANCED_FACE ( 'NONE', ( #63 ), #244, .F. ) ;
#174 = COORDINATED_UNIVERSAL_TIME_OFFSET ( 1, 0, .AHEAD. ) ;
#175 = CC_DESIGN_APPROVAL ( #126, ( #307 ) ) ;
#176 = DIRECTION ( 'NONE',  ( 3.491481338843133355E-15, -1.276467311168695266E-16, 1.000000000000000000 ) ) ;
#177 = DIRECTION ( 'NONE',  ( 0.000000000000000000, 1.000000000000000000, 0.000000000000000000 ) ) ;
#178 = CIRCLE ( 'NONE', #34, 2.399999999999997691 ) ;
#179 = CC_DESIGN_DATE_AND_TIME_ASSIGNMENT ( #74, #169, ( #307 ) ) ;
#180 = DIRECTION ( 'NONE',  ( 3.491481338843133355E-15, -1.276467311168695266E-16, 1.000000000000000000 ) ) ;
#181 = DIRECTION ( 'NONE',  ( 3.491481338843133355E-15, -1.224646799147353207E-16, 1.000000000000000000 ) ) ;
#182 = DIRECTION ( 'NONE',  ( -4.275831445896958607E-31, -1.000000000000000000, -1.224646799147353207E-16 ) ) ;
#183 = EDGE_CURVE ( 'NONE', #168, #208, #324, .T. ) ;
#184 = DIRECTION ( 'NONE',  ( -3.491481338843133355E-15, 1.224646799147353207E-16, -1.000000000000000000 ) ) ;
#185 = CARTESIAN_POINT ( 'NONE',  ( 1.105795826785057334E-13, -3.000000000000003553, 49.39999999999999858 ) ) ;
#186 = EDGE_LOOP ( 'NONE', ( #242, #167, #101, #330 ) ) ;
#187 = APPROVAL_ROLE ( '' ) ;
#188 = ORIENTED_EDGE ( 'NONE', *, *, #54, .T. ) ;
#189 = ORIENTED_EDGE ( 'NONE', *, *, #363, .T. ) ;
#190 = CALENDAR_DATE ( 2023, 31, 3 ) ;
#191 = ADVANCED_FACE ( 'NONE', ( #304 ), #156, .T. ) ;
#192 = EDGE_LOOP ( 'NONE', ( #77, #272, #311, #87 ) ) ;
#193 = DIRECTION ( 'NONE',  ( -3.491481338843133355E-15, 1.224646799147353207E-16, -1.000000000000000000 ) ) ;
#194 = FACE_OUTER_BOUND ( 'NONE', #337, .T. ) ;
#195 =( NAMED_UNIT ( * ) SI_UNIT ( $, .STERADIAN. ) SOLID_ANGLE_UNIT ( ) );
#196 = ADVANCED_FACE ( 'NONE', ( #264 ), #160, .F. ) ;
#197 = PERSON_AND_ORGANIZATION ( #8, #18 ) ;
#198 = AXIS2_PLACEMENT_3D ( 'NONE', #132, #271, #238 ) ;
#199 = DATE_AND_TIME ( #147, #269 ) ;
#200 = ADVANCED_FACE ( 'NONE', ( #30 ), #157, .T. ) ;
#201 = CARTESIAN_POINT ( 'NONE',  ( 1.745740669421566678E-13, 2.399999999999991473, 50.00000000000000000 ) ) ;
#202 = CIRCLE ( 'NONE', #231, 2.999999999999994671 ) ;
#203 = AXIS2_PLACEMENT_3D ( 'NONE', #229, #322, #98 ) ;
#204 = ORIENTED_EDGE ( 'NONE', *, *, #54, .F. ) ;
#205 = CC_DESIGN_APPROVAL ( #327, ( #217 ) ) ;
#206 = CARTESIAN_POINT ( 'NONE',  ( 1.745740669421566678E-13, -6.123233995736766085E-15, 50.00000000000000000 ) ) ;
#207 = CARTESIAN_POINT ( 'NONE',  ( -4.275870630573520576E-31, 1.499773526796243858E-32, -1.224658022084771305E-16 ) ) ;
#208 = VERTEX_POINT ( 'NONE', #28 ) ;
#209 = APPROVAL_PERSON_ORGANIZATION ( #234, #327, #99 ) ;
#210 = CARTESIAN_POINT ( 'NONE',  ( 1.102121886387616542E-13, 2.999999999999993339, 13.73205080756886076 ) ) ;
#211 = DIRECTION ( 'NONE',  ( -4.275831445896958607E-31, -1.000000000000000000, -1.224646799147353207E-16 ) ) ;
#212 = CARTESIAN_POINT ( 'NONE',  ( 1.000667421396370540E-13, -3.658387740909890592E-15, 28.66025403784433578 ) ) ;
#213 = ADVANCED_FACE ( 'NONE', ( #215 ), #356, .T. ) ;
#214 = EDGE_LOOP ( 'NONE', ( #82, #246, #59, #188 ) ) ;
#215 = FACE_OUTER_BOUND ( 'NONE', #7, .T. ) ;
#216 = AXIS2_PLACEMENT_3D ( 'NONE', #107, #180, #25 ) ;
#217 = SECURITY_CLASSIFICATION ( '', '', #225 ) ;
#218 = ORIENTED_EDGE ( 'NONE', *, *, #154, .T. ) ;
#219 = CARTESIAN_POINT ( 'NONE',  ( -6.413839710158237013E-31, 0.000000000000000000, -1.836996703606440502E-16 ) ) ;
#220 = DIRECTION ( 'NONE',  ( 3.491481338843133355E-15, -1.276467311168695266E-16, 1.000000000000000000 ) ) ;
#221 = DIRECTION ( 'NONE',  ( -3.491481338843133355E-15, 1.224646799147353207E-16, -1.000000000000000000 ) ) ;
#222 = PRODUCT_DEFINITION_FORMATION_WITH_SPECIFIED_SOURCE ( 'ANY', '', #259, .NOT_KNOWN. ) ;
#223 = PERSON_AND_ORGANIZATION ( #8, #18 ) ;
#224 = EDGE_CURVE ( 'NONE', #35, #168, #350, .T. ) ;
#225 = SECURITY_CLASSIFICATION_LEVEL ( 'unclassified' ) ;
#226 = AXIS2_PLACEMENT_3D ( 'NONE', #23, #83, #109 ) ;
#227 = APPROVAL_PERSON_ORGANIZATION ( #338, #347, #187 ) ;
#228 = ORIENTED_EDGE ( 'NONE', *, *, #257, .T. ) ;
#229 = CARTESIAN_POINT ( 'NONE',  ( 3.491481338843133986E-14, -1.276467311168695561E-15, 10.00000000000000178 ) ) ;
#230 = MANIFOLD_SOLID_BREP ( 'Corps-Déplacer/Copier1[1]', #24 ) ;
#231 = AXIS2_PLACEMENT_3D ( 'NONE', #75, #343, #339 ) ;
#232 = FACE_OUTER_BOUND ( 'NONE', #159, .T. ) ;
#233 = ADVANCED_BREP_SHAPE_REPRESENTATION ( '372737', ( #230, #5, #245 ), #262 ) ;
#234 = PERSON_AND_ORGANIZATION ( #8, #18 ) ;
#235 = CARTESIAN_POINT ( 'NONE',  ( -3.243059654561080202E-30, 9.511590187700545593E-32, -9.288492017647830582E-16 ) ) ;
#236 = EDGE_CURVE ( 'NONE', #321, #208, #11, .T. ) ;
#237 = CARTESIAN_POINT ( 'NONE',  ( 1.724791781388508004E-13, 2.999999999999991562, 49.39999999999999858 ) ) ;
#238 = DIRECTION ( 'NONE',  ( 4.275831445896958607E-31, 1.000000000000000000, 1.224646799147353207E-16 ) ) ;
#239 = LOCAL_TIME ( 9, 9, 0.000000000000000000, #91 ) ;
#240 = ADVANCED_FACE ( 'NONE', ( #153 ), #297, .F. ) ;
#241 = DIRECTION ( 'NONE',  ( 0.000000000000000000, 1.000000000000000000, 0.000000000000000000 ) ) ;
#242 = ORIENTED_EDGE ( 'NONE', *, *, #44, .T. ) ;
#243 = DIRECTION ( 'NONE',  ( -3.491481338843133355E-15, 1.224646799147353207E-16, -1.000000000000000000 ) ) ;
#244 = PLANE ( 'NONE',  #163 ) ;
#245 = AXIS2_PLACEMENT_3D ( 'NONE', #344, #340, #96 ) ;
#246 = ORIENTED_EDGE ( 'NONE', *, *, #133, .T. ) ;
#247 = ADVANCED_FACE ( 'NONE', ( #275 ), #266, .T. ) ;
#248 = APPLICATION_PROTOCOL_DEFINITION ( 'international standard', 'config_control_design', 1994, #92 ) ;
#249 = EDGE_LOOP ( 'NONE', ( #55, #2 ) ) ;
#250 = LINE ( 'NONE', #261, #22 ) ;
#251 = APPLICATION_PROTOCOL_DEFINITION ( 'international standard', 'config_control_design', 1994, #130 ) ;
#252 = VECTOR ( 'NONE', #13, 1000.000000000000000 ) ;
#253 = EDGE_CURVE ( 'NONE', #284, #32, #136, .T. ) ;
#254 = CARTESIAN_POINT ( 'NONE',  ( 2.449293598294705921E-16, 1.999999999999997335, 7.159379187309385654E-17 ) ) ;
#255 = VECTOR ( 'NONE', #86, 1000.000000000000000 ) ;
#256 = CONICAL_SURFACE ( 'NONE', #128, 6.999999999999996447, 0.2617993877991501850 ) ;
#257 = EDGE_CURVE ( 'NONE', #171, #326, #361, .T. ) ;
#258 = DIRECTION ( 'NONE',  ( -3.491481338843133355E-15, 1.224646799147353207E-16, -1.000000000000000000 ) ) ;
#259 = PRODUCT ( '372737', '372737', '', ( #95 ) ) ;
#260 = AXIS2_PLACEMENT_3D ( 'NONE', #235, #152, #358 ) ;
#261 = CARTESIAN_POINT ( 'NONE',  ( 1.009239948990402001E-13, 6.999999999999992895, 28.66025403784433578 ) ) ;
#262 =( GEOMETRIC_REPRESENTATION_CONTEXT ( 3 ) GLOBAL_UNCERTAINTY_ASSIGNED_CONTEXT ( ( #170 ) ) GLOBAL_UNIT_ASSIGNED_CONTEXT ( ( #146, #14, #195 ) ) REPRESENTATION_CONTEXT ( 'NONE', 'WORKASPACE' ) );
#263 = EDGE_LOOP ( 'NONE', ( #29, #348, #39, #141 ) ) ;
#264 = FACE_OUTER_BOUND ( 'NONE', #249, .T. ) ;
#265 = DESIGN_CONTEXT ( 'detailed design', #130, 'design' ) ;
#266 = CYLINDRICAL_SURFACE ( 'NONE', #268, 2.999999999999994671 ) ;
#267 = AXIS2_PLACEMENT_3D ( 'NONE', #270, #112, #292 ) ;
#268 = AXIS2_PLACEMENT_3D ( 'NONE', #60, #359, #329 ) ;
#269 = LOCAL_TIME ( 9, 9, 0.000000000000000000, #174 ) ;
#270 = CARTESIAN_POINT ( 'NONE',  ( 1.000667421396370540E-13, -3.658387740909890592E-15, 28.66025403784433578 ) ) ;
#271 = DIRECTION ( 'NONE',  ( -3.491481338843133355E-15, 1.224646799147353207E-16, -1.000000000000000000 ) ) ;
#272 = ORIENTED_EDGE ( 'NONE', *, *, #158, .T. ) ;
#273 = DIRECTION ( 'NONE',  ( -4.275831445896958607E-31, -1.000000000000000000, -1.224646799147353207E-16 ) ) ;
#274 = ORIENTED_EDGE ( 'NONE', *, *, #154, .F. ) ;
#275 = FACE_OUTER_BOUND ( 'NONE', #345, .T. ) ;
#276 = PRODUCT_RELATED_PRODUCT_CATEGORY ( 'detail', '', ( #259 ) ) ;
#277 = DIRECTION ( 'NONE',  ( 3.491481338843133355E-15, -1.276467311168695266E-16, 1.000000000000000000 ) ) ;
#278 = PERSON_AND_ORGANIZATION_ROLE ( 'creator' ) ;
#279 = ORIENTED_EDGE ( 'NONE', *, *, #158, .F. ) ;
#280 = DIRECTION ( 'NONE',  ( 4.275831445896959482E-31, 1.000000000000000000, 1.224646799147353207E-16 ) ) ;
#281 = EDGE_CURVE ( 'NONE', #341, #326, #362, .T. ) ;
#282 = LINE ( 'NONE', #38, #252 ) ;
#283 = PERSON_AND_ORGANIZATION_ROLE ( 'creator' ) ;
#284 = VERTEX_POINT ( 'NONE', #237 ) ;
#285 = CYLINDRICAL_SURFACE ( 'NONE', #334, 2.999999999999994671 ) ;
#286 = CARTESIAN_POINT ( 'NONE',  ( 1.745740669421566678E-13, -6.123233995736766085E-15, 50.00000000000000000 ) ) ;
#287 = DATE_TIME_ROLE ( 'classification_date' ) ;
#288 = VECTOR ( 'NONE', #184, 1000.000000000000000 ) ;
#289 = PRODUCT_DEFINITION_SHAPE ( 'NONE', 'NONE',  #307 ) ;
#290 = EDGE_CURVE ( 'NONE', #171, #284, #50, .T. ) ;
#291 = AXIS2_PLACEMENT_3D ( 'NONE', #21, #176, #106 ) ;
#292 = DIRECTION ( 'NONE',  ( 0.000000000000000000, -1.000000000000000000, 0.000000000000000000 ) ) ;
#293 = DIRECTION ( 'NONE',  ( 3.491481338843133355E-15, -1.276467311168695266E-16, 1.000000000000000000 ) ) ;
#294 = CARTESIAN_POINT ( 'NONE',  ( -1.532736330333576670E-30, -1.999999999999997335, -4.389931325943828075E-16 ) ) ;
#295 = CC_DESIGN_PERSON_AND_ORGANIZATION_ASSIGNMENT ( #122, #76, ( #217 ) ) ;
#296 = FACE_OUTER_BOUND ( 'NONE', #192, .T. ) ;
#297 = PLANE ( 'NONE',  #198 ) ;
#298 = CONICAL_SURFACE ( 'NONE', #323, 2.399999999999997691, 0.7853981633974453924 ) ;
#299 = ORIENTED_EDGE ( 'NONE', *, *, #27, .F. ) ;
#300 = VECTOR ( 'NONE', #131, 1000.000000000000114 ) ;
#301 = LOCAL_TIME ( 9, 9, 0.000000000000000000, #72 ) ;
#302 = DIRECTION ( 'NONE',  ( 0.000000000000000000, -1.000000000000000000, 0.000000000000000000 ) ) ;
#303 = ADVANCED_FACE ( 'NONE', ( #110 ), #256, .T. ) ;
#304 = FACE_OUTER_BOUND ( 'NONE', #357, .T. ) ;
#305 = ORIENTED_EDGE ( 'NONE', *, *, #183, .F. ) ;
#306 = APPROVAL_DATE_TIME ( #90, #126 ) ;
#307 = PRODUCT_DEFINITION ( 'UNKNOWN', '', #222, #265 ) ;
#308 = ORIENTED_EDGE ( 'NONE', *, *, #236, .T. ) ;
#309 = CARTESIAN_POINT ( 'NONE',  ( 1.745740669421566678E-13, -6.123233995736766085E-15, 50.00000000000000000 ) ) ;
#310 = CARTESIAN_POINT ( 'NONE',  ( 0.000000000000000000, 0.000000000000000000, 0.000000000000000000 ) ) ;
#311 = ORIENTED_EDGE ( 'NONE', *, *, #148, .T. ) ;
#312 = PERSON_AND_ORGANIZATION ( #8, #18 ) ;
#313 = DIRECTION ( 'NONE',  ( 0.000000000000000000, 1.000000000000000000, 0.000000000000000000 ) ) ;
#314 = CIRCLE ( 'NONE', #85, 2.399999999999997691 ) ;
#315 = PERSON_AND_ORGANIZATION_ROLE ( 'design_owner' ) ;
#316 = DIRECTION ( 'NONE',  ( 0.000000000000000000, -1.000000000000000000, 0.000000000000000000 ) ) ;
#317 = CALENDAR_DATE ( 2023, 31, 3 ) ;
#318 = CIRCLE ( 'NONE', #260, 1.999999999999999112 ) ;
#319 = DATE_AND_TIME ( #317, #104 ) ;
#320 = ADVANCED_FACE ( 'NONE', ( #194 ), #285, .T. ) ;
#321 = VERTEX_POINT ( 'NONE', #172 ) ;
#322 = DIRECTION ( 'NONE',  ( 3.491481338843133355E-15, -1.276467311168695266E-16, 1.000000000000000000 ) ) ;
#323 = AXIS2_PLACEMENT_3D ( 'NONE', #286, #258, #47 ) ;
#324 = LINE ( 'NONE', #294, #255 ) ;
#325 = AXIS2_PLACEMENT_3D ( 'NONE', #162, #181, #273 ) ;
#326 = VERTEX_POINT ( 'NONE', #120 ) ;
#327 = APPROVAL ( #46, 'UNSPECIFIED' ) ;
#328 = CARTESIAN_POINT ( 'NONE',  ( 1.770233605404516547E-14, 1.999999999999999112, -6.735557395311057335E-16 ) ) ;
#329 = DIRECTION ( 'NONE',  ( 4.275831445896959482E-31, 1.000000000000000000, 1.224646799147353207E-16 ) ) ;
#330 = ORIENTED_EDGE ( 'NONE', *, *, #281, .F. ) ;
#331 = CARTESIAN_POINT ( 'NONE',  ( 3.673940397442041133E-16, -2.999999999999994671, -3.673940397442065784E-16 ) ) ;
#332 = DIRECTION ( 'NONE',  ( 3.491481338843133355E-15, -1.276467311168695266E-16, 1.000000000000000000 ) ) ;
#333 = CONICAL_SURFACE ( 'NONE', #267, 6.999999999999996447, 0.2617993877991501850 ) ;
#334 = AXIS2_PLACEMENT_3D ( 'NONE', #310, #6, #280 ) ;
#335 = CC_DESIGN_DATE_AND_TIME_ASSIGNMENT ( #199, #287, ( #217 ) ) ;
#336 = DIRECTION ( 'NONE',  ( -4.456761796588770537E-31, -1.000000000000000000, -1.276467311168695512E-16 ) ) ;
#337 = EDGE_LOOP ( 'NONE', ( #189, #228, #111, #3 ) ) ;
#338 = PERSON_AND_ORGANIZATION ( #8, #18 ) ;
#339 = DIRECTION ( 'NONE',  ( -2.042810365310288350E-14, -1.000000000000000000, 0.000000000000000000 ) ) ;
#340 = DIRECTION ( 'NONE',  ( 0.000000000000000000, 0.000000000000000000, 1.000000000000000000 ) ) ;
#341 = VERTEX_POINT ( 'NONE', #117 ) ;
#342 = AXIS2_PLACEMENT_3D ( 'NONE', #33, #346, #116 ) ;
#343 = DIRECTION ( 'NONE',  ( -3.491481338843133355E-15, 1.276467311168695266E-16, -1.000000000000000000 ) ) ;
#344 = CARTESIAN_POINT ( 'NONE',  ( 0.000000000000000000, 0.000000000000000000, 0.000000000000000000 ) ) ;
#345 = EDGE_LOOP ( 'NONE', ( #119, #161, #165, #204 ) ) ;
#346 = DIRECTION ( 'NONE',  ( -3.491481338843133355E-15, 1.224646799147353207E-16, -1.000000000000000000 ) ) ;
#347 = APPROVAL ( #66, 'UNSPECIFIED' ) ;
#348 = ORIENTED_EDGE ( 'NONE', *, *, #224, .T. ) ;
#349 = CLOSED_SHELL ( 'NONE', ( #191, #213, #200, #173 ) ) ;
#350 = CIRCLE ( 'NONE', #216, 1.999999999999999112 ) ;
#351 = COORDINATED_UNIVERSAL_TIME_OFFSET ( 1, 0, .AHEAD. ) ;
#352 = AXIS2_PLACEMENT_3D ( 'NONE', #309, #221, #70 ) ;
#353 = AXIS2_PLACEMENT_3D ( 'NONE', #81, #243, #241 ) ;
#354 = CARTESIAN_POINT ( 'NONE',  ( 1.745740669421566678E-13, 2.399999999999991473, 50.00000000000000000 ) ) ;
#355 = DIRECTION ( 'NONE',  ( -2.468850131082271655E-15, 0.7071067811865455743, -0.7071067811865493491 ) ) ;
#356 = PLANE ( 'NONE',  #102 ) ;
#357 = EDGE_LOOP ( 'NONE', ( #360, #142, #274, #305 ) ) ;
#358 = DIRECTION ( 'NONE',  ( -4.456761796588772289E-31, -1.000000000000000000, -1.276467311168695759E-16 ) ) ;
#359 = DIRECTION ( 'NONE',  ( -3.491481338843133355E-15, 1.224646799147353207E-16, -1.000000000000000000 ) ) ;
#360 = ORIENTED_EDGE ( 'NONE', *, *, #27, .T. ) ;
#361 = LINE ( 'NONE', #331, #288 ) ;
#362 = LINE ( 'NONE', #113, #300 ) ;
#363 = EDGE_CURVE ( 'NONE', #284, #171, #53, .T. ) ;
ENDSEC;
END-ISO-10303-21;
