ISO-10303-21;
HEADER;
FILE_DESCRIPTION (( 'STEP AP203' ),
    '1' );
FILE_NAME ('372736.step',
    '2023-03-31T07:08:59',
    ( '' ),
    ( '' ),
    'SwSTEP 2.0',
    'SolidWorks 2022',
    '' );
FILE_SCHEMA (( 'CONFIG_CONTROL_DESIGN' ));
ENDSEC;

DATA;
#1 = CARTESIAN_POINT ( 'NONE',  ( 8.551662891793899697E-31, 1.999999999999995781, 2.449293598294700991E-16 ) ) ;
#2 = AXIS2_PLACEMENT_3D ( 'NONE', #63, #17, #216 ) ;
#3 = SECURITY_CLASSIFICATION ( '', '', #190 ) ;
#4 = EDGE_LOOP ( 'NONE', ( #254, #235, #295, #75 ) ) ;
#5 = CARTESIAN_POINT ( 'NONE',  ( 0.000000000000000000, 0.000000000000000000, 0.000000000000000000 ) ) ;
#6 = ORIENTED_EDGE ( 'NONE', *, *, #303, .T. ) ;
#7 = MANIFOLD_SOLID_BREP ( 'Corps-Déplacer/Copier1[2]', #15 ) ;
#8 = DIRECTION ( 'NONE',  ( 0.000000000000000000, 1.000000000000000000, 0.000000000000000000 ) ) ;
#9 = DIRECTION ( 'NONE',  ( -4.275831445896958607E-31, -1.000000000000000000, -1.224646799147353207E-16 ) ) ;
#10 = ORIENTED_EDGE ( 'NONE', *, *, #143, .F. ) ;
#11 = PERSON_AND_ORGANIZATION_ROLE ( 'creator' ) ;
#12 = EDGE_CURVE ( 'NONE', #172, #49, #83, .T. ) ;
#13 = DIRECTION ( 'NONE',  ( 0.000000000000000000, 1.000000000000000000, 0.000000000000000000 ) ) ;
#14 = EDGE_LOOP ( 'NONE', ( #159, #160 ) ) ;
#15 = CLOSED_SHELL ( 'NONE', ( #272, #247, #58, #139 ) ) ;
#16 = CARTESIAN_POINT ( 'NONE',  ( 0.000000000000000000, 0.000000000000000000, 0.000000000000000000 ) ) ;
#17 = DIRECTION ( 'NONE',  ( -3.491481338843133355E-15, 1.224646799147353207E-16, -1.000000000000000000 ) ) ;
#18 = DIRECTION ( 'NONE',  ( 4.275831445896959482E-31, 1.000000000000000000, 1.224646799147353207E-16 ) ) ;
#19 = CONICAL_SURFACE ( 'NONE', #145, 1.600000000000001421, 0.7853981633974512766 ) ;
#20 = ORIENTED_EDGE ( 'NONE', *, *, #273, .F. ) ;
#21 = DIRECTION ( 'NONE',  ( 0.000000000000000000, 1.000000000000000000, 0.000000000000000000 ) ) ;
#22 = ORIENTED_EDGE ( 'NONE', *, *, #100, .F. ) ;
#23 = APPROVAL_PERSON_ORGANIZATION ( #239, #84, #65 ) ;
#24 = CARTESIAN_POINT ( 'NONE',  ( 2.439258338750972239E-13, -1.600000000000010081, 70.00000000000000000 ) ) ;
#25 = DIRECTION ( 'NONE',  ( -3.491481338843133355E-15, 1.224646799147353207E-16, -1.000000000000000000 ) ) ;
#26 = ORIENTED_EDGE ( 'NONE', *, *, #68, .F. ) ;
#27 = CONICAL_SURFACE ( 'NONE', #238, 1.600000000000001421, 0.7853981633974512766 ) ;
#28 = CYLINDRICAL_SURFACE ( 'NONE', #188, 1.999999999999995781 ) ;
#29 = DIRECTION ( 'NONE',  ( 1.000000000000000000, 0.000000000000000000, 0.000000000000000000 ) ) ;
#30 = FACE_OUTER_BOUND ( 'NONE', #76, .T. ) ;
#31 = EDGE_LOOP ( 'NONE', ( #205, #264 ) ) ;
#32 = CIRCLE ( 'NONE', #248, 1.999999999999997113 ) ;
#33 = LOCAL_TIME ( 9, 8, 59.00000000000000000, #37 ) ;
#34 = ORIENTED_EDGE ( 'NONE', *, *, #102, .F. ) ;
#35 = DIRECTION ( 'NONE',  ( -3.491481338843133355E-15, 1.224646799147353207E-16, -1.000000000000000000 ) ) ;
#36 = ADVANCED_FACE ( 'NONE', ( #231 ), #284, .T. ) ;
#37 = COORDINATED_UNIVERSAL_TIME_OFFSET ( 1, 0, .AHEAD. ) ;
#38 = DIRECTION ( 'NONE',  ( -3.491481338843133355E-15, 1.224646799147353207E-16, -1.000000000000000000 ) ) ;
#39 = VECTOR ( 'NONE', #217, 1000.000000000000114 ) ;
#40 = PLANE ( 'NONE',  #194 ) ;
#41 = DIRECTION ( 'NONE',  ( -3.491481338843133355E-15, 1.224646799147353207E-16, -1.000000000000000000 ) ) ;
#42 = AXIS2_PLACEMENT_3D ( 'NONE', #50, #293, #158 ) ;
#43 = CARTESIAN_POINT ( 'NONE',  ( 2.444036937190193601E-13, 1.599999999999992761, 70.00000000000000000 ) ) ;
#44 = ADVANCED_FACE ( 'NONE', ( #302 ), #19, .T. ) ;
#45 = DIRECTION ( 'NONE',  ( 3.491481338843133355E-15, -1.224646799147353207E-16, 1.000000000000000000 ) ) ;
#46 = LINE ( 'NONE', #224, #39 ) ;
#47 = ORGANIZATION ( 'UNSPECIFIED', 'UNSPECIFIED', '' ) ;
#48 = CARTESIAN_POINT ( 'NONE',  ( 0.000000000000000000, 0.000000000000000000, 0.000000000000000000 ) ) ;
#49 = VERTEX_POINT ( 'NONE', #278 ) ;
#50 = CARTESIAN_POINT ( 'NONE',  ( -6.413747819833296218E-31, 2.249639902328589723E-32, -1.836970385171362705E-16 ) ) ;
#51 = EDGE_LOOP ( 'NONE', ( #286, #113 ) ) ;
#52 = CARTESIAN_POINT ( 'NONE',  ( 2.444036937190193601E-13, -8.572527594031472993E-15, 70.00000000000000000 ) ) ;
#53 = EDGE_CURVE ( 'NONE', #49, #178, #311, .T. ) ;
#54 = CARTESIAN_POINT ( 'NONE',  ( 2.449293598294697047E-16, -1.999999999999999112, -2.449293598294713810E-16 ) ) ;
#55 = AXIS2_PLACEMENT_3D ( 'NONE', #233, #117, #213 ) ;
#56 = CIRCLE ( 'NONE', #2, 2.000000000000001332 ) ;
#57 = DIRECTION ( 'NONE',  ( 4.275831445896958607E-31, 1.000000000000000000, 1.224646799147353207E-16 ) ) ;
#58 = ADVANCED_FACE ( 'NONE', ( #30 ), #135, .T. ) ;
#59 = CALENDAR_DATE ( 2023, 31, 3 ) ;
#60 = CALENDAR_DATE ( 2023, 31, 3 ) ;
#61 = CARTESIAN_POINT ( 'NONE',  ( -4.275832747872699746E-31, 1.999999999999994005, -1.224647172048026391E-16 ) ) ;
#62 = VECTOR ( 'NONE', #198, 1000.000000000000000 ) ;
#63 = CARTESIAN_POINT ( 'NONE',  ( 2.430071011834821320E-13, -8.523541722065579564E-15, 69.60000000000000853 ) ) ;
#64 = DATE_TIME_ROLE ( 'classification_date' ) ;
#65 = APPROVAL_ROLE ( '' ) ;
#66 = AXIS2_PLACEMENT_3D ( 'NONE', #195, #25, #21 ) ;
#67 = DIRECTION ( 'NONE',  ( 4.275831445896958607E-31, 1.000000000000000000, 1.224646799147352961E-16 ) ) ;
#68 = EDGE_CURVE ( 'NONE', #130, #246, #180, .T. ) ;
#69 = DIRECTION ( 'NONE',  ( -3.491481338843133355E-15, 1.224646799147353207E-16, -1.000000000000000000 ) ) ;
#70 = CARTESIAN_POINT ( 'NONE',  ( 1.047444401652940007E-13, -3.673940397442059178E-15, 30.00000000000000000 ) ) ;
#71 = VECTOR ( 'NONE', #38, 1000.000000000000000 ) ;
#72 = DIRECTION ( 'NONE',  ( -3.491481338843133355E-15, 1.224646799147353207E-16, -1.000000000000000000 ) ) ;
#73 = CC_DESIGN_PERSON_AND_ORGANIZATION_ASSIGNMENT ( #149, #291, ( #3 ) ) ;
#74 = CARTESIAN_POINT ( 'NONE',  ( 1.047444401652940007E-13, 1.999999999999993561, 30.00000000000000000 ) ) ;
#75 = ORIENTED_EDGE ( 'NONE', *, *, #312, .F. ) ;
#76 = EDGE_LOOP ( 'NONE', ( #34, #174, #271, #98 ) ) ;
#77 = CALENDAR_DATE ( 2023, 31, 3 ) ;
#78 = CARTESIAN_POINT ( 'NONE',  ( 1.047444401652940007E-13, -3.673940397442059178E-15, 30.00000000000000000 ) ) ;
#79 = APPROVAL_PERSON_ORGANIZATION ( #301, #107, #304 ) ;
#80 = PERSON_AND_ORGANIZATION ( #134, #47 ) ;
#81 = CARTESIAN_POINT ( 'NONE',  ( 0.000000000000000000, 0.000000000000000000, 0.000000000000000000 ) ) ;
#82 = DATE_AND_TIME ( #77, #120 ) ;
#83 = LINE ( 'NONE', #54, #71 ) ;
#84 = APPROVAL ( #90, 'UNSPECIFIED' ) ;
#85 = AXIS2_PLACEMENT_3D ( 'NONE', #81, #164, #256 ) ;
#86 = APPLICATION_PROTOCOL_DEFINITION ( 'international standard', 'config_control_design', 1994, #106 ) ;
#87 = CC_DESIGN_DATE_AND_TIME_ASSIGNMENT ( #282, #306, ( #209 ) ) ;
#88 = PRODUCT ( '372736', '372736', '', ( #299 ) ) ;
#89 = DIRECTION ( 'NONE',  ( 4.275831445896959482E-31, 1.000000000000000000, 1.224646799147353207E-16 ) ) ;
#90 = APPROVAL_STATUS ( 'not_yet_approved' ) ;
#91 = DIRECTION ( 'NONE',  ( 0.000000000000000000, 1.000000000000000000, 0.000000000000000000 ) ) ;
#92 = COORDINATED_UNIVERSAL_TIME_OFFSET ( 1, 0, .AHEAD. ) ;
#93 = CARTESIAN_POINT ( 'NONE',  ( 2.444036937190193601E-13, 1.199807826129474044E-32, 70.00000000000000000 ) ) ;
#94 = DIRECTION ( 'NONE',  ( -3.491481338843133355E-15, 1.224646799147353207E-16, -1.000000000000000000 ) ) ;
#95 = AXIS2_PLACEMENT_3D ( 'NONE', #259, #281, #29 ) ;
#96 = EDGE_CURVE ( 'NONE', #246, #130, #171, .T. ) ;
#97 = CC_DESIGN_SECURITY_CLASSIFICATION ( #3, ( #243 ) ) ;
#98 = ORIENTED_EDGE ( 'NONE', *, *, #96, .F. ) ;
#99 = DIRECTION ( 'NONE',  ( -3.491481338843133355E-15, 1.224646799147353207E-16, -1.000000000000000000 ) ) ;
#100 = EDGE_CURVE ( 'NONE', #172, #201, #56, .T. ) ;
#101 = CARTESIAN_POINT ( 'NONE',  ( 5.261714944247638858E-14, -2.000000000000000444, 30.00000000000000000 ) ) ;
#102 = EDGE_CURVE ( 'NONE', #222, #246, #313, .T. ) ;
#103 = DIRECTION ( 'NONE',  ( 0.000000000000000000, 1.000000000000000000, 0.000000000000000000 ) ) ;
#104 = AXIS2_PLACEMENT_3D ( 'NONE', #70, #94, #103 ) ;
#105 = CYLINDRICAL_SURFACE ( 'NONE', #148, 1.999999999999999112 ) ;
#106 = APPLICATION_CONTEXT ( 'configuration controlled 3d designs of mechanical parts and assemblies' ) ;
#107 = APPROVAL ( #206, 'UNSPECIFIED' ) ;
#108 = ORIENTED_EDGE ( 'NONE', *, *, #68, .T. ) ;
#109 = AXIS2_PLACEMENT_3D ( 'NONE', #245, #45, #9 ) ;
#110 = EDGE_LOOP ( 'NONE', ( #142, #137, #6, #257 ) ) ;
#111 = PERSON_AND_ORGANIZATION ( #134, #47 ) ;
#112 =( NAMED_UNIT ( * ) PLANE_ANGLE_UNIT ( ) SI_UNIT ( $, .RADIAN. ) );
#113 = ORIENTED_EDGE ( 'NONE', *, *, #53, .T. ) ;
#114 = VECTOR ( 'NONE', #131, 1000.000000000000000 ) ;
#115 = CC_DESIGN_APPROVAL ( #84, ( #3 ) ) ;
#116 = DIRECTION ( 'NONE',  ( -3.491481338843133355E-15, 1.224646799147353207E-16, -1.000000000000000000 ) ) ;
#117 = DIRECTION ( 'NONE',  ( 3.491481338843133355E-15, -1.224646799147353207E-16, 1.000000000000000000 ) ) ;
#118 = PRODUCT_RELATED_PRODUCT_CATEGORY ( 'detail', '', ( #88 ) ) ;
#119 = PERSON_AND_ORGANIZATION_ROLE ( 'design_supplier' ) ;
#120 = LOCAL_TIME ( 9, 8, 59.00000000000000000, #208 ) ;
#121 = LOCAL_TIME ( 9, 8, 59.00000000000000000, #92 ) ;
#122 = DIRECTION ( 'NONE',  ( -3.491481338843133355E-15, 1.224646799147353207E-16, -1.000000000000000000 ) ) ;
#123 = DATE_AND_TIME ( #60, #121 ) ;
#124 = CARTESIAN_POINT ( 'NONE',  ( 5.261714944247644538E-14, -1.999999999999994005, -6.123234368639260996E-16 ) ) ;
#125 = AXIS2_PLACEMENT_3D ( 'NONE', #176, #99, #221 ) ;
#126 = ADVANCED_FACE ( 'NONE', ( #146 ), #27, .T. ) ;
#127 = ORIENTED_EDGE ( 'NONE', *, *, #96, .T. ) ;
#128 = DIRECTION ( 'NONE',  ( 0.000000000000000000, 1.000000000000000000, 0.000000000000000000 ) ) ;
#129 = FACE_OUTER_BOUND ( 'NONE', #51, .T. ) ;
#130 = VERTEX_POINT ( 'NONE', #61 ) ;
#131 = DIRECTION ( 'NONE',  ( -3.491481338843133355E-15, 1.224646799147353207E-16, -1.000000000000000000 ) ) ;
#132 = ADVANCED_FACE ( 'NONE', ( #240 ), #40, .F. ) ;
#133 = COORDINATED_UNIVERSAL_TIME_OFFSET ( 1, 0, .AHEAD. ) ;
#134 = PERSON ( 'UNSPECIFIED', 'UNSPECIFIED', 'UNSPECIFIED', ('UNSPECIFIED'), ('UNSPECIFIED'), ('UNSPECIFIED') ) ;
#135 = CYLINDRICAL_SURFACE ( 'NONE', #85, 1.999999999999995781 ) ;
#136 = VERTEX_POINT ( 'NONE', #43 ) ;
#137 = ORIENTED_EDGE ( 'NONE', *, *, #100, .T. ) ;
#138 = LINE ( 'NONE', #166, #155 ) ;
#139 = ADVANCED_FACE ( 'NONE', ( #168 ), #261, .T. ) ;
#140 = CLOSED_SHELL ( 'NONE', ( #44, #36, #189, #214, #126, #132 ) ) ;
#141 = PERSON_AND_ORGANIZATION_ROLE ( 'design_owner' ) ;
#142 = ORIENTED_EDGE ( 'NONE', *, *, #12, .F. ) ;
#143 = EDGE_CURVE ( 'NONE', #211, #130, #187, .T. ) ;
#144 = CC_DESIGN_PERSON_AND_ORGANIZATION_ASSIGNMENT ( #227, #11, ( #243 ) ) ;
#145 = AXIS2_PLACEMENT_3D ( 'NONE', #52, #35, #13 ) ;
#146 = FACE_OUTER_BOUND ( 'NONE', #157, .T. ) ;
#147 = ADVANCED_BREP_SHAPE_REPRESENTATION ( '372736', ( #308, #7, #95 ), #223 ) ;
#148 = AXIS2_PLACEMENT_3D ( 'NONE', #48, #152, #244 ) ;
#149 = PERSON_AND_ORGANIZATION ( #134, #47 ) ;
#150 = DIRECTION ( 'NONE',  ( -3.491481338843133355E-15, 1.224646799147353207E-16, -1.000000000000000000 ) ) ;
#151 = EDGE_CURVE ( 'NONE', #211, #222, #237, .T. ) ;
#152 = DIRECTION ( 'NONE',  ( -3.491481338843133355E-15, 1.224646799147353207E-16, -1.000000000000000000 ) ) ;
#153 = EDGE_LOOP ( 'NONE', ( #202, #197, #26, #10 ) ) ;
#154 = PLANE ( 'NONE',  #109 ) ;
#155 = VECTOR ( 'NONE', #229, 1000.000000000000114 ) ;
#156 = ORIENTED_EDGE ( 'NONE', *, *, #170, .T. ) ;
#157 = EDGE_LOOP ( 'NONE', ( #260, #156, #251, #22 ) ) ;
#158 = DIRECTION ( 'NONE',  ( -4.275831445896958607E-31, -1.000000000000000000, -1.224646799147353207E-16 ) ) ;
#159 = ORIENTED_EDGE ( 'NONE', *, *, #203, .F. ) ;
#160 = ORIENTED_EDGE ( 'NONE', *, *, #170, .F. ) ;
#161 = APPROVAL_STATUS ( 'not_yet_approved' ) ;
#162 = DIRECTION ( 'NONE',  ( -3.491481338843133355E-15, 1.224646799147353207E-16, -1.000000000000000000 ) ) ;
#163 = APPLICATION_PROTOCOL_DEFINITION ( 'international standard', 'config_control_design', 1994, #310 ) ;
#164 = DIRECTION ( 'NONE',  ( -3.491481338843133355E-15, 1.224646799147353207E-16, -1.000000000000000000 ) ) ;
#165 = AXIS2_PLACEMENT_3D ( 'NONE', #78, #162, #253 ) ;
#166 = CARTESIAN_POINT ( 'NONE',  ( 2.444036937190193601E-13, 1.599999999999992761, 70.00000000000000000 ) ) ;
#167 = DATE_AND_TIME ( #59, #263 ) ;
#168 = FACE_OUTER_BOUND ( 'NONE', #31, .T. ) ;
#169 = LOCAL_TIME ( 9, 8, 59.00000000000000000, #133 ) ;
#170 = EDGE_CURVE ( 'NONE', #225, #136, #276, .T. ) ;
#171 = CIRCLE ( 'NONE', #200, 1.999999999999994005 ) ;
#172 = VERTEX_POINT ( 'NONE', #175 ) ;
#173 = DIRECTION ( 'NONE',  ( 0.000000000000000000, 1.000000000000000000, 0.000000000000000000 ) ) ;
#174 = ORIENTED_EDGE ( 'NONE', *, *, #186, .T. ) ;
#175 = CARTESIAN_POINT ( 'NONE',  ( 1.741207000342173473E-13, -2.000000000000010214, 69.60000000000000853 ) ) ;
#176 = CARTESIAN_POINT ( 'NONE',  ( 2.444036937190193601E-13, -8.572527594031472993E-15, 70.00000000000000000 ) ) ;
#177 = CIRCLE ( 'NONE', #66, 1.600000000000001421 ) ;
#178 = VERTEX_POINT ( 'NONE', #270 ) ;
#179 = CARTESIAN_POINT ( 'NONE',  ( 2.430071011834821320E-13, -8.523541722065579564E-15, 69.60000000000000853 ) ) ;
#180 = CIRCLE ( 'NONE', #297, 1.999999999999994005 ) ;
#181 = PERSON_AND_ORGANIZATION_ROLE ( 'creator' ) ;
#182 = APPROVAL ( #161, 'UNSPECIFIED' ) ;
#183 = EDGE_CURVE ( 'NONE', #225, #172, #46, .T. ) ;
#184 = PERSON_AND_ORGANIZATION ( #134, #47 ) ;
#185 = APPROVAL_ROLE ( '' ) ;
#186 = EDGE_CURVE ( 'NONE', #222, #211, #307, .T. ) ;
#187 = LINE ( 'NONE', #1, #62 ) ;
#188 = AXIS2_PLACEMENT_3D ( 'NONE', #5, #196, #67 ) ;
#189 = ADVANCED_FACE ( 'NONE', ( #129 ), #154, .F. ) ;
#190 = SECURITY_CLASSIFICATION_LEVEL ( 'unclassified' ) ;
#191 = CARTESIAN_POINT ( 'NONE',  ( -1.282749563966659244E-30, 4.499279804657179445E-32, -3.673940770342725410E-16 ) ) ;
#192 = DIRECTION ( 'NONE',  ( -3.491481338843133355E-15, 1.224646799147353207E-16, -1.000000000000000000 ) ) ;
#193 = CC_DESIGN_PERSON_AND_ORGANIZATION_ASSIGNMENT ( #184, #181, ( #209 ) ) ;
#194 = AXIS2_PLACEMENT_3D ( 'NONE', #93, #192, #241 ) ;
#195 = CARTESIAN_POINT ( 'NONE',  ( 2.444036937190193601E-13, -8.572527594031472993E-15, 70.00000000000000000 ) ) ;
#196 = DIRECTION ( 'NONE',  ( -3.491481338843133355E-15, 1.224646799147353207E-16, -1.000000000000000000 ) ) ;
#197 = ORIENTED_EDGE ( 'NONE', *, *, #102, .T. ) ;
#198 = DIRECTION ( 'NONE',  ( -3.491481338843133355E-15, 1.224646799147353207E-16, -1.000000000000000000 ) ) ;
#199 = CARTESIAN_POINT ( 'NONE',  ( 2.430071011834821320E-13, 1.999999999999992673, 69.60000000000000853 ) ) ;
#200 = AXIS2_PLACEMENT_3D ( 'NONE', #191, #267, #89 ) ;
#201 = VERTEX_POINT ( 'NONE', #199 ) ;
#202 = ORIENTED_EDGE ( 'NONE', *, *, #151, .T. ) ;
#203 = EDGE_CURVE ( 'NONE', #136, #225, #177, .T. ) ;
#204 =( LENGTH_UNIT ( ) NAMED_UNIT ( * ) SI_UNIT ( .MILLI., .METRE. ) );
#205 = ORIENTED_EDGE ( 'NONE', *, *, #151, .F. ) ;
#206 = APPROVAL_STATUS ( 'not_yet_approved' ) ;
#207 = EDGE_CURVE ( 'NONE', #201, #172, #283, .T. ) ;
#208 = COORDINATED_UNIVERSAL_TIME_OFFSET ( 1, 0, .AHEAD. ) ;
#209 = PRODUCT_DEFINITION ( 'UNKNOWN', '', #243, #290 ) ;
#210 = APPROVAL_DATE_TIME ( #82, #107 ) ;
#211 = VERTEX_POINT ( 'NONE', #74 ) ;
#212 = UNCERTAINTY_MEASURE_WITH_UNIT (LENGTH_MEASURE( 1.000000000000000082E-05 ), #204, 'distance_accuracy_value', 'NONE');
#213 = DIRECTION ( 'NONE',  ( -4.275831445896958607E-31, -1.000000000000000000, -1.224646799147353207E-16 ) ) ;
#214 = ADVANCED_FACE ( 'NONE', ( #274 ), #105, .T. ) ;
#215 = AXIS2_PLACEMENT_3D ( 'NONE', #296, #72, #8 ) ;
#216 = DIRECTION ( 'NONE',  ( 0.000000000000000000, 1.000000000000000000, 0.000000000000000000 ) ) ;
#217 = DIRECTION ( 'NONE',  ( -2.382254525458708792E-15, -0.7071067811865495711, -0.7071067811865455743 ) ) ;
#218 = CC_DESIGN_APPROVAL ( #182, ( #243 ) ) ;
#219 = FACE_OUTER_BOUND ( 'NONE', #279, .T. ) ;
#220 = ORIENTED_EDGE ( 'NONE', *, *, #12, .T. ) ;
#221 = DIRECTION ( 'NONE',  ( 0.000000000000000000, 1.000000000000000000, 0.000000000000000000 ) ) ;
#222 = VERTEX_POINT ( 'NONE', #101 ) ;
#223 =( GEOMETRIC_REPRESENTATION_CONTEXT ( 3 ) GLOBAL_UNCERTAINTY_ASSIGNED_CONTEXT ( ( #212 ) ) GLOBAL_UNIT_ASSIGNED_CONTEXT ( ( #204, #112, #255 ) ) REPRESENTATION_CONTEXT ( 'NONE', 'WORKASPACE' ) );
#224 = CARTESIAN_POINT ( 'NONE',  ( 2.445996372068829464E-13, -1.600000000000010081, 70.00000000000000000 ) ) ;
#225 = VERTEX_POINT ( 'NONE', #24 ) ;
#226 = CALENDAR_DATE ( 2023, 31, 3 ) ;
#227 = PERSON_AND_ORGANIZATION ( #134, #47 ) ;
#228 = APPROVAL_PERSON_ORGANIZATION ( #80, #182, #185 ) ;
#229 = DIRECTION ( 'NONE',  ( -2.468850131082257455E-15, 0.7071067811865497932, -0.7071067811865453523 ) ) ;
#230 = APPROVAL_DATE_TIME ( #288, #84 ) ;
#231 = FACE_OUTER_BOUND ( 'NONE', #305, .T. ) ;
#232 = VECTOR ( 'NONE', #41, 1000.000000000000000 ) ;
#233 = CARTESIAN_POINT ( 'NONE',  ( 1.047444401652940007E-13, 1.499759782661850218E-32, 30.00000000000000000 ) ) ;
#234 = CARTESIAN_POINT ( 'NONE',  ( -1.282749563966659244E-30, 4.499279804657179445E-32, -3.673940770342725410E-16 ) ) ;
#235 = ORIENTED_EDGE ( 'NONE', *, *, #183, .T. ) ;
#236 = PRODUCT_DEFINITION_SHAPE ( 'NONE', 'NONE',  #209 ) ;
#237 = CIRCLE ( 'NONE', #215, 1.999999999999997113 ) ;
#238 = AXIS2_PLACEMENT_3D ( 'NONE', #292, #150, #91 ) ;
#239 = PERSON_AND_ORGANIZATION ( #134, #47 ) ;
#240 = FACE_OUTER_BOUND ( 'NONE', #14, .T. ) ;
#241 = DIRECTION ( 'NONE',  ( 4.275831445896958607E-31, 1.000000000000000000, 1.224646799147353207E-16 ) ) ;
#242 = DIRECTION ( 'NONE',  ( -3.491481338843133355E-15, 1.224646799147353207E-16, -1.000000000000000000 ) ) ;
#243 = PRODUCT_DEFINITION_FORMATION_WITH_SPECIFIED_SOURCE ( 'ANY', '', #88, .NOT_KNOWN. ) ;
#244 = DIRECTION ( 'NONE',  ( 4.275831445896958607E-31, 1.000000000000000000, 1.224646799147353207E-16 ) ) ;
#245 = CARTESIAN_POINT ( 'NONE',  ( 1.047444401652940007E-13, 1.499759782661850218E-32, 30.00000000000000000 ) ) ;
#246 = VERTEX_POINT ( 'NONE', #124 ) ;
#247 = ADVANCED_FACE ( 'NONE', ( #219 ), #275, .F. ) ;
#248 = AXIS2_PLACEMENT_3D ( 'NONE', #294, #69, #128 ) ;
#249 = FACE_OUTER_BOUND ( 'NONE', #153, .T. ) ;
#250 = CC_DESIGN_PERSON_AND_ORGANIZATION_ASSIGNMENT ( #111, #141, ( #88 ) ) ;
#251 = ORIENTED_EDGE ( 'NONE', *, *, #312, .T. ) ;
#252 = APPROVAL_DATE_TIME ( #167, #182 ) ;
#253 = DIRECTION ( 'NONE',  ( 0.000000000000000000, 1.000000000000000000, 0.000000000000000000 ) ) ;
#254 = ORIENTED_EDGE ( 'NONE', *, *, #203, .T. ) ;
#255 =( NAMED_UNIT ( * ) SI_UNIT ( $, .STERADIAN. ) SOLID_ANGLE_UNIT ( ) );
#256 = DIRECTION ( 'NONE',  ( 4.275831445896958607E-31, 1.000000000000000000, 1.224646799147352961E-16 ) ) ;
#257 = ORIENTED_EDGE ( 'NONE', *, *, #53, .F. ) ;
#258 = CARTESIAN_POINT ( 'NONE',  ( 8.551662891793913710E-31, 1.999999999999999112, 2.449293598294705428E-16 ) ) ;
#259 = CARTESIAN_POINT ( 'NONE',  ( 0.000000000000000000, 0.000000000000000000, 0.000000000000000000 ) ) ;
#260 = ORIENTED_EDGE ( 'NONE', *, *, #183, .F. ) ;
#261 = PLANE ( 'NONE',  #55 ) ;
#262 = CC_DESIGN_APPROVAL ( #107, ( #209 ) ) ;
#263 = LOCAL_TIME ( 9, 8, 59.00000000000000000, #285 ) ;
#264 = ORIENTED_EDGE ( 'NONE', *, *, #186, .F. ) ;
#265 = PERSON_AND_ORGANIZATION ( #134, #47 ) ;
#266 = CALENDAR_DATE ( 2023, 31, 3 ) ;
#267 = DIRECTION ( 'NONE',  ( -3.491481338843133355E-15, 1.224646799147353207E-16, -1.000000000000000000 ) ) ;
#268 = AXIS2_PLACEMENT_3D ( 'NONE', #16, #116, #57 ) ;
#269 = CC_DESIGN_PERSON_AND_ORGANIZATION_ASSIGNMENT ( #265, #119, ( #243 ) ) ;
#270 = CARTESIAN_POINT ( 'NONE',  ( 1.047444401652940007E-13, 1.999999999999993561, 30.00000000000000000 ) ) ;
#271 = ORIENTED_EDGE ( 'NONE', *, *, #143, .T. ) ;
#272 = ADVANCED_FACE ( 'NONE', ( #249 ), #28, .T. ) ;
#273 = EDGE_CURVE ( 'NONE', #178, #49, #32, .T. ) ;
#274 = FACE_OUTER_BOUND ( 'NONE', #110, .T. ) ;
#275 = PLANE ( 'NONE',  #42 ) ;
#276 = CIRCLE ( 'NONE', #125, 1.600000000000001421 ) ;
#277 = CC_DESIGN_DATE_AND_TIME_ASSIGNMENT ( #123, #64, ( #3 ) ) ;
#278 = CARTESIAN_POINT ( 'NONE',  ( 1.741207000342174735E-13, -2.000000000000000444, 30.00000000000000000 ) ) ;
#279 = EDGE_LOOP ( 'NONE', ( #108, #127 ) ) ;
#280 = LINE ( 'NONE', #258, #114 ) ;
#281 = DIRECTION ( 'NONE',  ( 0.000000000000000000, 0.000000000000000000, 1.000000000000000000 ) ) ;
#282 = DATE_AND_TIME ( #226, #169 ) ;
#283 = CIRCLE ( 'NONE', #289, 2.000000000000001332 ) ;
#284 = CYLINDRICAL_SURFACE ( 'NONE', #268, 1.999999999999999112 ) ;
#285 = COORDINATED_UNIVERSAL_TIME_OFFSET ( 1, 0, .AHEAD. ) ;
#286 = ORIENTED_EDGE ( 'NONE', *, *, #273, .T. ) ;
#287 = CARTESIAN_POINT ( 'NONE',  ( 2.449293598294692609E-16, -1.999999999999995781, -2.449293598294709866E-16 ) ) ;
#288 = DATE_AND_TIME ( #266, #33 ) ;
#289 = AXIS2_PLACEMENT_3D ( 'NONE', #179, #242, #173 ) ;
#290 = DESIGN_CONTEXT ( 'detailed design', #106, 'design' ) ;
#291 = PERSON_AND_ORGANIZATION_ROLE ( 'classification_officer' ) ;
#292 = CARTESIAN_POINT ( 'NONE',  ( 2.444036937190193601E-13, -8.572527594031472993E-15, 70.00000000000000000 ) ) ;
#293 = DIRECTION ( 'NONE',  ( 3.491481338843133355E-15, -1.224646799147353207E-16, 1.000000000000000000 ) ) ;
#294 = CARTESIAN_POINT ( 'NONE',  ( 1.047444401652940007E-13, -3.673940397442059178E-15, 30.00000000000000000 ) ) ;
#295 = ORIENTED_EDGE ( 'NONE', *, *, #207, .F. ) ;
#296 = CARTESIAN_POINT ( 'NONE',  ( 1.047444401652940007E-13, -3.673940397442059178E-15, 30.00000000000000000 ) ) ;
#297 = AXIS2_PLACEMENT_3D ( 'NONE', #234, #122, #18 ) ;
#298 = ORIENTED_EDGE ( 'NONE', *, *, #303, .F. ) ;
#299 = MECHANICAL_CONTEXT ( 'NONE', #310, 'mechanical' ) ;
#300 = ORIENTED_EDGE ( 'NONE', *, *, #207, .T. ) ;
#301 = PERSON_AND_ORGANIZATION ( #134, #47 ) ;
#302 = FACE_OUTER_BOUND ( 'NONE', #4, .T. ) ;
#303 = EDGE_CURVE ( 'NONE', #201, #178, #280, .T. ) ;
#304 = APPROVAL_ROLE ( '' ) ;
#305 = EDGE_LOOP ( 'NONE', ( #300, #220, #20, #298 ) ) ;
#306 = DATE_TIME_ROLE ( 'creation_date' ) ;
#307 = CIRCLE ( 'NONE', #104, 1.999999999999997113 ) ;
#308 = MANIFOLD_SOLID_BREP ( 'Corps-Déplacer/Copier1[1]', #140 ) ;
#309 = SHAPE_DEFINITION_REPRESENTATION ( #236, #147 ) ;
#310 = APPLICATION_CONTEXT ( 'configuration controlled 3d designs of mechanical parts and assemblies' ) ;
#311 = CIRCLE ( 'NONE', #165, 1.999999999999997113 ) ;
#312 = EDGE_CURVE ( 'NONE', #136, #201, #138, .T. ) ;
#313 = LINE ( 'NONE', #287, #232 ) ;
ENDSEC;
END-ISO-10303-21;
