ISO-10303-21;
HEADER;
FILE_DESCRIPTION (( 'STEP AP203' ),
    '1' );
FILE_NAME ('372735.step',
    '2023-03-31T07:08:59',
    ( '' ),
    ( '' ),
    'SwSTEP 2.0',
    'SolidWorks 2022',
    '' );
FILE_SCHEMA (( 'CONFIG_CONTROL_DESIGN' ));
ENDSEC;

DATA;
#1 = FACE_OUTER_BOUND ( 'NONE', #288, .T. ) ;
#2 = AXIS2_PLACEMENT_3D ( 'NONE', #113, #238, #284 ) ;
#3 = ADVANCED_BREP_SHAPE_REPRESENTATION ( '372735', ( #214, #108, #43 ), #74 ) ;
#4 = CARTESIAN_POINT ( 'NONE',  ( 0.000000000000000000, 0.000000000000000000, 0.000000000000000000 ) ) ;
#5 = ORIENTED_EDGE ( 'NONE', *, *, #218, .T. ) ;
#6 = APPROVAL ( #67, 'UNSPECIFIED' ) ;
#7 = CARTESIAN_POINT ( 'NONE',  ( 6.982962677686266711E-14, 1.499759782661851039E-32, 20.00000000000000000 ) ) ;
#8 = CIRCLE ( 'NONE', #99, 1.999999999999996669 ) ;
#9 = FACE_OUTER_BOUND ( 'NONE', #281, .T. ) ;
#10 = VERTEX_POINT ( 'NONE', #286 ) ;
#11 = EDGE_LOOP ( 'NONE', ( #134, #147, #40, #53 ) ) ;
#12 = PERSON_AND_ORGANIZATION ( #236, #196 ) ;
#13 = EDGE_LOOP ( 'NONE', ( #31, #132 ) ) ;
#14 = PERSON_AND_ORGANIZATION ( #236, #196 ) ;
#15 = PERSON_AND_ORGANIZATION_ROLE ( 'design_owner' ) ;
#16 = ADVANCED_FACE ( 'NONE', ( #85 ), #41, .F. ) ;
#17 = APPROVAL_ROLE ( '' ) ;
#18 = DIRECTION ( 'NONE',  ( 3.491481338843133355E-15, -1.224646799147353207E-16, 1.000000000000000000 ) ) ;
#19 = ORIENTED_EDGE ( 'NONE', *, *, #191, .T. ) ;
#20 = CIRCLE ( 'NONE', #278, 1.600000000000001421 ) ;
#21 = CARTESIAN_POINT ( 'NONE',  ( 6.982962677686266711E-14, -2.449293598294706513E-15, 20.00000000000000000 ) ) ;
#22 = PERSON_AND_ORGANIZATION ( #236, #196 ) ;
#23 = FACE_OUTER_BOUND ( 'NONE', #11, .T. ) ;
#24 = CARTESIAN_POINT ( 'NONE',  ( 2.080922877950507480E-13, -7.298894922918224927E-15, 59.60000000000000142 ) ) ;
#25 = PRODUCT_DEFINITION_FORMATION_WITH_SPECIFIED_SOURCE ( 'ANY', '', #149, .NOT_KNOWN. ) ;
#26 = ORIENTED_EDGE ( 'NONE', *, *, #253, .T. ) ;
#27 = DIRECTION ( 'NONE',  ( -4.275831445896958607E-31, -1.000000000000000000, -1.224646799147353207E-16 ) ) ;
#28 = VERTEX_POINT ( 'NONE', #305 ) ;
#29 = CARTESIAN_POINT ( 'NONE',  ( -6.413707984168844411E-31, 2.249625929858389488E-32, -1.836958975783602715E-16 ) ) ;
#30 = DIRECTION ( 'NONE',  ( -3.491481338843133355E-15, 1.224646799147353207E-16, -1.000000000000000000 ) ) ;
#31 = ORIENTED_EDGE ( 'NONE', *, *, #58, .T. ) ;
#32 = LINE ( 'NONE', #172, #299 ) ;
#33 =( NAMED_UNIT ( * ) PLANE_ANGLE_UNIT ( ) SI_UNIT ( $, .RADIAN. ) );
#34 = FACE_OUTER_BOUND ( 'NONE', #170, .T. ) ;
#35 = VERTEX_POINT ( 'NONE', #62 ) ;
#36 = ORIENTED_EDGE ( 'NONE', *, *, #218, .F. ) ;
#37 = AXIS2_PLACEMENT_3D ( 'NONE', #24, #289, #122 ) ;
#38 = AXIS2_PLACEMENT_3D ( 'NONE', #178, #69, #277 ) ;
#39 = ORIENTED_EDGE ( 'NONE', *, *, #275, .F. ) ;
#40 = ORIENTED_EDGE ( 'NONE', *, *, #142, .F. ) ;
#41 = PLANE ( 'NONE',  #219 ) ;
#42 = CALENDAR_DATE ( 2023, 31, 3 ) ;
#43 = AXIS2_PLACEMENT_3D ( 'NONE', #261, #136, #111 ) ;
#44 = DIRECTION ( 'NONE',  ( -2.382254525458708792E-15, -0.7071067811865495711, -0.7071067811865455743 ) ) ;
#45 = DIRECTION ( 'NONE',  ( -3.491481338843133355E-15, 1.224646799147353207E-16, -1.000000000000000000 ) ) ;
#46 = LINE ( 'NONE', #66, #73 ) ;
#47 = EDGE_CURVE ( 'NONE', #35, #297, #121, .T. ) ;
#48 = PLANE ( 'NONE',  #310 ) ;
#49 = DIRECTION ( 'NONE',  ( 0.000000000000000000, 1.000000000000000000, 0.000000000000000000 ) ) ;
#50 = APPROVAL_PERSON_ORGANIZATION ( #216, #6, #269 ) ;
#51 = CARTESIAN_POINT ( 'NONE',  ( 3.515974274826075967E-14, -1.999999999999999112, 20.00000000000000000 ) ) ;
#52 = APPLICATION_CONTEXT ( 'configuration controlled 3d designs of mechanical parts and assemblies' ) ;
#53 = ORIENTED_EDGE ( 'NONE', *, *, #70, .F. ) ;
#54 = FACE_OUTER_BOUND ( 'NONE', #173, .T. ) ;
#55 = ORIENTED_EDGE ( 'NONE', *, *, #104, .T. ) ;
#56 = APPROVAL_DATE_TIME ( #234, #181 ) ;
#57 = LINE ( 'NONE', #260, #106 ) ;
#58 = EDGE_CURVE ( 'NONE', #10, #227, #267, .T. ) ;
#59 = MECHANICAL_CONTEXT ( 'NONE', #306, 'mechanical' ) ;
#60 = ORIENTED_EDGE ( 'NONE', *, *, #142, .T. ) ;
#61 = LOCAL_TIME ( 9, 8, 59.00000000000000000, #124 ) ;
#62 = CARTESIAN_POINT ( 'NONE',  ( 6.982962677686266711E-14, 1.999999999999994005, 20.00000000000000000 ) ) ;
#63 = ADVANCED_FACE ( 'NONE', ( #34 ), #137, .T. ) ;
#64 = CARTESIAN_POINT ( 'NONE',  ( 0.000000000000000000, 0.000000000000000000, 0.000000000000000000 ) ) ;
#65 = CONICAL_SURFACE ( 'NONE', #2, 1.600000000000001421, 0.7853981633974512766 ) ;
#66 = CARTESIAN_POINT ( 'NONE',  ( 2.096848238184515624E-13, -1.600000000000008749, 60.00000000000000000 ) ) ;
#67 = APPROVAL_STATUS ( 'not_yet_approved' ) ;
#68 = AXIS2_PLACEMENT_3D ( 'NONE', #247, #96, #118 ) ;
#69 = DIRECTION ( 'NONE',  ( -3.491481338843133355E-15, 1.224646799147353207E-16, -1.000000000000000000 ) ) ;
#70 = EDGE_CURVE ( 'NONE', #177, #204, #57, .T. ) ;
#71 = DIRECTION ( 'NONE',  ( -3.491481338843133355E-15, 1.224646799147353207E-16, -1.000000000000000000 ) ) ;
#72 = DIRECTION ( 'NONE',  ( 0.000000000000000000, 1.000000000000000000, 0.000000000000000000 ) ) ;
#73 = VECTOR ( 'NONE', #44, 1000.000000000000114 ) ;
#74 =( GEOMETRIC_REPRESENTATION_CONTEXT ( 3 ) GLOBAL_UNCERTAINTY_ASSIGNED_CONTEXT ( ( #123 ) ) GLOBAL_UNIT_ASSIGNED_CONTEXT ( ( #165, #33, #88 ) ) REPRESENTATION_CONTEXT ( 'NONE', 'WORKASPACE' ) );
#75 = PLANE ( 'NONE',  #38 ) ;
#76 = CC_DESIGN_DATE_AND_TIME_ASSIGNMENT ( #192, #245, ( #285 ) ) ;
#77 = CARTESIAN_POINT ( 'NONE',  ( 2.090110204866658651E-13, -1.600000000000008749, 60.00000000000000000 ) ) ;
#78 = ORIENTED_EDGE ( 'NONE', *, *, #150, .T. ) ;
#79 = COORDINATED_UNIVERSAL_TIME_OFFSET ( 1, 0, .AHEAD. ) ;
#80 = DIRECTION ( 'NONE',  ( 0.000000000000000000, 1.000000000000000000, 0.000000000000000000 ) ) ;
#81 = LOCAL_TIME ( 9, 8, 59.00000000000000000, #133 ) ;
#82 = APPLICATION_PROTOCOL_DEFINITION ( 'international standard', 'config_control_design', 1994, #52 ) ;
#83 = CARTESIAN_POINT ( 'NONE',  ( 0.000000000000000000, 0.000000000000000000, 0.000000000000000000 ) ) ;
#84 = CALENDAR_DATE ( 2023, 31, 3 ) ;
#85 = FACE_OUTER_BOUND ( 'NONE', #157, .T. ) ;
#86 = PRODUCT_RELATED_PRODUCT_CATEGORY ( 'detail', '', ( #149 ) ) ;
#87 = CIRCLE ( 'NONE', #68, 1.999999999999996669 ) ;
#88 =( NAMED_UNIT ( * ) SI_UNIT ( $, .STERADIAN. ) SOLID_ANGLE_UNIT ( ) );
#89 = CC_DESIGN_PERSON_AND_ORGANIZATION_ASSIGNMENT ( #287, #15, ( #149 ) ) ;
#90 = AXIS2_PLACEMENT_3D ( 'NONE', #83, #209, #303 ) ;
#91 = ORIENTED_EDGE ( 'NONE', *, *, #311, .F. ) ;
#92 = CARTESIAN_POINT ( 'NONE',  ( 0.000000000000000000, 0.000000000000000000, 0.000000000000000000 ) ) ;
#93 = PERSON_AND_ORGANIZATION ( #236, #196 ) ;
#94 = DIRECTION ( 'NONE',  ( 4.275831445896958607E-31, 1.000000000000000000, 1.224646799147353207E-16 ) ) ;
#95 = SHAPE_DEFINITION_REPRESENTATION ( #129, #3 ) ;
#96 = DIRECTION ( 'NONE',  ( -3.491481338843133355E-15, 1.224646799147353207E-16, -1.000000000000000000 ) ) ;
#97 = ORIENTED_EDGE ( 'NONE', *, *, #100, .F. ) ;
#98 = DIRECTION ( 'NONE',  ( -3.491481338843133355E-15, 1.224646799147353207E-16, -1.000000000000000000 ) ) ;
#99 = AXIS2_PLACEMENT_3D ( 'NONE', #254, #71, #201 ) ;
#100 = EDGE_CURVE ( 'NONE', #177, #258, #175, .T. ) ;
#101 = CARTESIAN_POINT ( 'NONE',  ( 3.515974274826078492E-14, -1.999999999999994005, -6.123211549863132114E-16 ) ) ;
#102 = EDGE_CURVE ( 'NONE', #153, #258, #46, .T. ) ;
#103 = CARTESIAN_POINT ( 'NONE',  ( 6.982962677686266711E-14, 1.999999999999994005, 20.00000000000000000 ) ) ;
#104 = EDGE_CURVE ( 'NONE', #264, #153, #262, .T. ) ;
#105 = DIRECTION ( 'NONE',  ( 0.000000000000000000, 1.000000000000000000, 0.000000000000000000 ) ) ;
#106 = VECTOR ( 'NONE', #242, 1000.000000000000000 ) ;
#107 = DIRECTION ( 'NONE',  ( -3.491481338843133355E-15, 1.224646799147353207E-16, -1.000000000000000000 ) ) ;
#108 = MANIFOLD_SOLID_BREP ( 'Corps-Déplacer/Copier1[2]', #231 ) ;
#109 = ADVANCED_FACE ( 'NONE', ( #23 ), #222, .T. ) ;
#110 = ORIENTED_EDGE ( 'NONE', *, *, #150, .F. ) ;
#111 = DIRECTION ( 'NONE',  ( 1.000000000000000000, 0.000000000000000000, 0.000000000000000000 ) ) ;
#112 = VECTOR ( 'NONE', #217, 1000.000000000000000 ) ;
#113 = CARTESIAN_POINT ( 'NONE',  ( 2.094888803305880013E-13, -7.347880794884118356E-15, 60.00000000000000000 ) ) ;
#114 = APPROVAL_STATUS ( 'not_yet_approved' ) ;
#115 = AXIS2_PLACEMENT_3D ( 'NONE', #7, #228, #125 ) ;
#116 = SECURITY_CLASSIFICATION_LEVEL ( 'unclassified' ) ;
#117 = DIRECTION ( 'NONE',  ( -3.491481338843133355E-15, 1.224646799147353207E-16, -1.000000000000000000 ) ) ;
#118 = DIRECTION ( 'NONE',  ( 0.000000000000000000, 1.000000000000000000, 0.000000000000000000 ) ) ;
#119 = CC_DESIGN_PERSON_AND_ORGANIZATION_ASSIGNMENT ( #14, #184, ( #25 ) ) ;
#120 = LOCAL_TIME ( 9, 8, 59.00000000000000000, #79 ) ;
#121 = CIRCLE ( 'NONE', #156, 1.999999999999996669 ) ;
#122 = DIRECTION ( 'NONE',  ( 0.000000000000000000, 1.000000000000000000, 0.000000000000000000 ) ) ;
#123 = UNCERTAINTY_MEASURE_WITH_UNIT (LENGTH_MEASURE( 1.000000000000000082E-05 ), #165, 'distance_accuracy_value', 'NONE');
#124 = COORDINATED_UNIVERSAL_TIME_OFFSET ( 1, 0, .AHEAD. ) ;
#125 = DIRECTION ( 'NONE',  ( -4.275831445896958607E-31, -1.000000000000000000, -1.224646799147353207E-16 ) ) ;
#126 = LOCAL_TIME ( 9, 8, 59.00000000000000000, #290 ) ;
#127 = ORIENTED_EDGE ( 'NONE', *, *, #47, .T. ) ;
#128 = CARTESIAN_POINT ( 'NONE',  ( -1.282741596833768882E-30, 4.499251859716778976E-32, -3.673917951567205431E-16 ) ) ;
#129 = PRODUCT_DEFINITION_SHAPE ( 'NONE', 'NONE',  #255 ) ;
#130 = FACE_OUTER_BOUND ( 'NONE', #256, .T. ) ;
#131 = CIRCLE ( 'NONE', #164, 2.000000000000001332 ) ;
#132 = ORIENTED_EDGE ( 'NONE', *, *, #275, .T. ) ;
#133 = COORDINATED_UNIVERSAL_TIME_OFFSET ( 1, 0, .AHEAD. ) ;
#134 = ORIENTED_EDGE ( 'NONE', *, *, #100, .T. ) ;
#135 = ADVANCED_FACE ( 'NONE', ( #193 ), #293, .T. ) ;
#136 = DIRECTION ( 'NONE',  ( 0.000000000000000000, 0.000000000000000000, 1.000000000000000000 ) ) ;
#137 = CYLINDRICAL_SURFACE ( 'NONE', #90, 1.999999999999999112 ) ;
#138 = EDGE_LOOP ( 'NONE', ( #127, #26, #229, #110 ) ) ;
#139 = EDGE_CURVE ( 'NONE', #258, #28, #270, .T. ) ;
#140 = AXIS2_PLACEMENT_3D ( 'NONE', #223, #98, #105 ) ;
#141 = DIRECTION ( 'NONE',  ( -4.275831445896958607E-31, -1.000000000000000000, -1.224646799147353207E-16 ) ) ;
#142 = EDGE_CURVE ( 'NONE', #204, #28, #87, .T. ) ;
#143 = CC_DESIGN_DATE_AND_TIME_ASSIGNMENT ( #162, #160, ( #255 ) ) ;
#144 = AXIS2_PLACEMENT_3D ( 'NONE', #4, #30, #155 ) ;
#145 = DIRECTION ( 'NONE',  ( 4.275831445896958607E-31, 1.000000000000000000, 1.224646799147353207E-16 ) ) ;
#146 = PERSON_AND_ORGANIZATION_ROLE ( 'design_supplier' ) ;
#147 = ORIENTED_EDGE ( 'NONE', *, *, #139, .T. ) ;
#148 = LINE ( 'NONE', #194, #112 ) ;
#149 = PRODUCT ( '372735', '372735', '', ( #59 ) ) ;
#150 = EDGE_CURVE ( 'NONE', #35, #10, #148, .T. ) ;
#151 = CARTESIAN_POINT ( 'NONE',  ( 2.094888803305880013E-13, 1.599999999999994094, 60.00000000000000000 ) ) ;
#152 = CYLINDRICAL_SURFACE ( 'NONE', #144, 1.999999999999995337 ) ;
#153 = VERTEX_POINT ( 'NONE', #77 ) ;
#154 = ORIENTED_EDGE ( 'NONE', *, *, #191, .F. ) ;
#155 = DIRECTION ( 'NONE',  ( 4.275831445896958607E-31, 1.000000000000000000, 1.224646799147353207E-16 ) ) ;
#156 = AXIS2_PLACEMENT_3D ( 'NONE', #21, #117, #80 ) ;
#157 = EDGE_LOOP ( 'NONE', ( #60, #19 ) ) ;
#158 = PERSON_AND_ORGANIZATION_ROLE ( 'creator' ) ;
#159 = DIRECTION ( 'NONE',  ( -3.491481338843133355E-15, 1.224646799147353207E-16, -1.000000000000000000 ) ) ;
#160 = DATE_TIME_ROLE ( 'creation_date' ) ;
#161 = ORIENTED_EDGE ( 'NONE', *, *, #253, .F. ) ;
#162 = DATE_AND_TIME ( #205, #120 ) ;
#163 = AXIS2_PLACEMENT_3D ( 'NONE', #312, #189, #246 ) ;
#164 = AXIS2_PLACEMENT_3D ( 'NONE', #174, #107, #72 ) ;
#165 =( LENGTH_UNIT ( ) NAMED_UNIT ( * ) SI_UNIT ( .MILLI., .METRE. ) );
#166 = CC_DESIGN_PERSON_AND_ORGANIZATION_ASSIGNMENT ( #93, #244, ( #285 ) ) ;
#167 = DIRECTION ( 'NONE',  ( -3.491481338843133355E-15, 1.224646799147353207E-16, -1.000000000000000000 ) ) ;
#168 = CLOSED_SHELL ( 'NONE', ( #304, #109, #16, #63, #169, #183 ) ) ;
#169 = ADVANCED_FACE ( 'NONE', ( #9 ), #291, .T. ) ;
#170 = EDGE_LOOP ( 'NONE', ( #243, #273, #252, #154 ) ) ;
#171 = DESIGN_CONTEXT ( 'detailed design', #52, 'design' ) ;
#172 = CARTESIAN_POINT ( 'NONE',  ( 2.094888803305880013E-13, 1.599999999999994094, 60.00000000000000000 ) ) ;
#173 = EDGE_LOOP ( 'NONE', ( #161, #268, #78, #39 ) ) ;
#174 = CARTESIAN_POINT ( 'NONE',  ( 2.080922877950507480E-13, -7.298894922918224927E-15, 59.60000000000000142 ) ) ;
#175 = CIRCLE ( 'NONE', #37, 2.000000000000001332 ) ;
#176 = DIRECTION ( 'NONE',  ( -3.491481338843133355E-15, 1.224646799147353207E-16, -1.000000000000000000 ) ) ;
#177 = VERTEX_POINT ( 'NONE', #226 ) ;
#178 = CARTESIAN_POINT ( 'NONE',  ( 2.094888803305880013E-13, 1.199807826129476233E-32, 60.00000000000000000 ) ) ;
#179 = PERSON_AND_ORGANIZATION ( #236, #196 ) ;
#180 = ORIENTED_EDGE ( 'NONE', *, *, #47, .F. ) ;
#181 = APPROVAL ( #182, 'UNSPECIFIED' ) ;
#182 = APPROVAL_STATUS ( 'not_yet_approved' ) ;
#183 = ADVANCED_FACE ( 'NONE', ( #130 ), #75, .F. ) ;
#184 = PERSON_AND_ORGANIZATION_ROLE ( 'creator' ) ;
#185 = AXIS2_PLACEMENT_3D ( 'NONE', #92, #265, #94 ) ;
#186 = LOCAL_TIME ( 9, 8, 59.00000000000000000, #307 ) ;
#187 = DATE_AND_TIME ( #42, #126 ) ;
#188 = ADVANCED_FACE ( 'NONE', ( #1 ), #296, .T. ) ;
#189 = DIRECTION ( 'NONE',  ( -3.491481338843133355E-15, 1.224646799147353207E-16, -1.000000000000000000 ) ) ;
#190 = CC_DESIGN_APPROVAL ( #279, ( #25 ) ) ;
#191 = EDGE_CURVE ( 'NONE', #28, #204, #8, .T. ) ;
#192 = DATE_AND_TIME ( #309, #61 ) ;
#193 = FACE_OUTER_BOUND ( 'NONE', #138, .T. ) ;
#194 = CARTESIAN_POINT ( 'NONE',  ( 8.551662891793897945E-31, 1.999999999999995337, 2.449293598294700498E-16 ) ) ;
#195 = CC_DESIGN_PERSON_AND_ORGANIZATION_ASSIGNMENT ( #12, #158, ( #255 ) ) ;
#196 = ORGANIZATION ( 'UNSPECIFIED', 'UNSPECIFIED', '' ) ;
#197 = DIRECTION ( 'NONE',  ( -2.468850131082257455E-15, 0.7071067811865497932, -0.7071067811865453523 ) ) ;
#198 = DIRECTION ( 'NONE',  ( -3.491481338843133355E-15, 1.224646799147353207E-16, -1.000000000000000000 ) ) ;
#199 = ORIENTED_EDGE ( 'NONE', *, *, #102, .T. ) ;
#200 = CARTESIAN_POINT ( 'NONE',  ( 2.449293598294692116E-16, -1.999999999999995337, -2.449293598294709373E-16 ) ) ;
#201 = DIRECTION ( 'NONE',  ( 0.000000000000000000, 1.000000000000000000, 0.000000000000000000 ) ) ;
#202 = APPROVAL_PERSON_ORGANIZATION ( #179, #279, #211 ) ;
#203 = AXIS2_PLACEMENT_3D ( 'NONE', #215, #159, #257 ) ;
#204 = VERTEX_POINT ( 'NONE', #103 ) ;
#205 = CALENDAR_DATE ( 2023, 31, 3 ) ;
#206 = EDGE_LOOP ( 'NONE', ( #55, #199, #97, #36 ) ) ;
#207 = EDGE_CURVE ( 'NONE', #153, #264, #20, .T. ) ;
#208 = VECTOR ( 'NONE', #250, 1000.000000000000000 ) ;
#209 = DIRECTION ( 'NONE',  ( -3.491481338843133355E-15, 1.224646799147353207E-16, -1.000000000000000000 ) ) ;
#210 = EDGE_CURVE ( 'NONE', #258, #177, #131, .T. ) ;
#211 = APPROVAL_ROLE ( '' ) ;
#212 = ADVANCED_FACE ( 'NONE', ( #54 ), #152, .T. ) ;
#213 = CALENDAR_DATE ( 2023, 31, 3 ) ;
#214 = MANIFOLD_SOLID_BREP ( 'Corps-Déplacer/Copier1[1]', #168 ) ;
#215 = CARTESIAN_POINT ( 'NONE',  ( -1.282741596833768882E-30, 4.499251859716778976E-32, -3.673917951567205431E-16 ) ) ;
#216 = PERSON_AND_ORGANIZATION ( #236, #196 ) ;
#217 = DIRECTION ( 'NONE',  ( -3.491481338843133355E-15, 1.224646799147353207E-16, -1.000000000000000000 ) ) ;
#218 = EDGE_CURVE ( 'NONE', #264, #177, #32, .T. ) ;
#219 = AXIS2_PLACEMENT_3D ( 'NONE', #239, #18, #141 ) ;
#220 = AXIS2_PLACEMENT_3D ( 'NONE', #263, #259, #282 ) ;
#221 = APPROVAL_DATE_TIME ( #187, #6 ) ;
#222 = CYLINDRICAL_SURFACE ( 'NONE', #185, 1.999999999999999112 ) ;
#223 = CARTESIAN_POINT ( 'NONE',  ( 2.094888803305880013E-13, -7.347880794884118356E-15, 60.00000000000000000 ) ) ;
#224 = CC_DESIGN_PERSON_AND_ORGANIZATION_ASSIGNMENT ( #22, #146, ( #25 ) ) ;
#225 = APPROVAL_PERSON_ORGANIZATION ( #283, #181, #17 ) ;
#226 = CARTESIAN_POINT ( 'NONE',  ( 2.080922877950507480E-13, 1.999999999999994005, 59.60000000000000142 ) ) ;
#227 = VERTEX_POINT ( 'NONE', #101 ) ;
#228 = DIRECTION ( 'NONE',  ( 3.491481338843133355E-15, -1.224646799147353207E-16, 1.000000000000000000 ) ) ;
#229 = ORIENTED_EDGE ( 'NONE', *, *, #58, .F. ) ;
#230 = VECTOR ( 'NONE', #45, 1000.000000000000000 ) ;
#231 = CLOSED_SHELL ( 'NONE', ( #135, #274, #212, #188 ) ) ;
#232 = CARTESIAN_POINT ( 'NONE',  ( 2.094888803305880013E-13, -7.347880794884118356E-15, 60.00000000000000000 ) ) ;
#233 = ORIENTED_EDGE ( 'NONE', *, *, #207, .T. ) ;
#234 = DATE_AND_TIME ( #213, #81 ) ;
#235 = APPROVAL_DATE_TIME ( #280, #279 ) ;
#236 = PERSON ( 'UNSPECIFIED', 'UNSPECIFIED', 'UNSPECIFIED', ('UNSPECIFIED'), ('UNSPECIFIED'), ('UNSPECIFIED') ) ;
#237 = CC_DESIGN_SECURITY_CLASSIFICATION ( #285, ( #25 ) ) ;
#238 = DIRECTION ( 'NONE',  ( -3.491481338843133355E-15, 1.224646799147353207E-16, -1.000000000000000000 ) ) ;
#239 = CARTESIAN_POINT ( 'NONE',  ( 6.982962677686266711E-14, 1.499759782661851039E-32, 20.00000000000000000 ) ) ;
#240 = CIRCLE ( 'NONE', #220, 1.999999999999996669 ) ;
#241 = CARTESIAN_POINT ( 'NONE',  ( 2.449293598294697047E-16, -1.999999999999999112, -2.449293598294713810E-16 ) ) ;
#242 = DIRECTION ( 'NONE',  ( -3.491481338843133355E-15, 1.224646799147353207E-16, -1.000000000000000000 ) ) ;
#243 = ORIENTED_EDGE ( 'NONE', *, *, #139, .F. ) ;
#244 = PERSON_AND_ORGANIZATION_ROLE ( 'classification_officer' ) ;
#245 = DATE_TIME_ROLE ( 'classification_date' ) ;
#246 = DIRECTION ( 'NONE',  ( 0.000000000000000000, 1.000000000000000000, 0.000000000000000000 ) ) ;
#247 = CARTESIAN_POINT ( 'NONE',  ( 6.982962677686266711E-14, -2.449293598294706513E-15, 20.00000000000000000 ) ) ;
#248 = DIRECTION ( 'NONE',  ( 3.491481338843133355E-15, -1.224646799147353207E-16, 1.000000000000000000 ) ) ;
#249 = AXIS2_PLACEMENT_3D ( 'NONE', #128, #176, #276 ) ;
#250 = DIRECTION ( 'NONE',  ( -3.491481338843133355E-15, 1.224646799147353207E-16, -1.000000000000000000 ) ) ;
#251 = FACE_OUTER_BOUND ( 'NONE', #206, .T. ) ;
#252 = ORIENTED_EDGE ( 'NONE', *, *, #70, .T. ) ;
#253 = EDGE_CURVE ( 'NONE', #297, #227, #295, .T. ) ;
#254 = CARTESIAN_POINT ( 'NONE',  ( 6.982962677686266711E-14, -2.449293598294706513E-15, 20.00000000000000000 ) ) ;
#255 = PRODUCT_DEFINITION ( 'UNKNOWN', '', #25, #171 ) ;
#256 = EDGE_LOOP ( 'NONE', ( #271, #300 ) ) ;
#257 = DIRECTION ( 'NONE',  ( 4.275831445896959482E-31, 1.000000000000000000, 1.224646799147353207E-16 ) ) ;
#258 = VERTEX_POINT ( 'NONE', #298 ) ;
#259 = DIRECTION ( 'NONE',  ( -3.491481338843133355E-15, 1.224646799147353207E-16, -1.000000000000000000 ) ) ;
#260 = CARTESIAN_POINT ( 'NONE',  ( 8.551662891793913710E-31, 1.999999999999999112, 2.449293598294705428E-16 ) ) ;
#261 = CARTESIAN_POINT ( 'NONE',  ( 0.000000000000000000, 0.000000000000000000, 0.000000000000000000 ) ) ;
#262 = CIRCLE ( 'NONE', #163, 1.600000000000001421 ) ;
#263 = CARTESIAN_POINT ( 'NONE',  ( 6.982962677686266711E-14, -2.449293598294706513E-15, 20.00000000000000000 ) ) ;
#264 = VERTEX_POINT ( 'NONE', #151 ) ;
#265 = DIRECTION ( 'NONE',  ( -3.491481338843133355E-15, 1.224646799147353207E-16, -1.000000000000000000 ) ) ;
#266 = CC_DESIGN_APPROVAL ( #181, ( #255 ) ) ;
#267 = CIRCLE ( 'NONE', #203, 1.999999999999994005 ) ;
#268 = ORIENTED_EDGE ( 'NONE', *, *, #311, .T. ) ;
#269 = APPROVAL_ROLE ( '' ) ;
#270 = LINE ( 'NONE', #241, #230 ) ;
#271 = ORIENTED_EDGE ( 'NONE', *, *, #104, .F. ) ;
#272 = FACE_OUTER_BOUND ( 'NONE', #13, .T. ) ;
#273 = ORIENTED_EDGE ( 'NONE', *, *, #210, .T. ) ;
#274 = ADVANCED_FACE ( 'NONE', ( #272 ), #48, .F. ) ;
#275 = EDGE_CURVE ( 'NONE', #227, #10, #294, .T. ) ;
#276 = DIRECTION ( 'NONE',  ( 4.275831445896959482E-31, 1.000000000000000000, 1.224646799147353207E-16 ) ) ;
#277 = DIRECTION ( 'NONE',  ( 4.275831445896958607E-31, 1.000000000000000000, 1.224646799147353207E-16 ) ) ;
#278 = AXIS2_PLACEMENT_3D ( 'NONE', #232, #198, #49 ) ;
#279 = APPROVAL ( #114, 'UNSPECIFIED' ) ;
#280 = DATE_AND_TIME ( #84, #186 ) ;
#281 = EDGE_LOOP ( 'NONE', ( #313, #233, #5, #292 ) ) ;
#282 = DIRECTION ( 'NONE',  ( 0.000000000000000000, 1.000000000000000000, 0.000000000000000000 ) ) ;
#283 = PERSON_AND_ORGANIZATION ( #236, #196 ) ;
#284 = DIRECTION ( 'NONE',  ( 0.000000000000000000, 1.000000000000000000, 0.000000000000000000 ) ) ;
#285 = SECURITY_CLASSIFICATION ( '', '', #116 ) ;
#286 = CARTESIAN_POINT ( 'NONE',  ( -4.275753076543797008E-31, 1.999999999999994005, -1.224624353272506412E-16 ) ) ;
#287 = PERSON_AND_ORGANIZATION ( #236, #196 ) ;
#288 = EDGE_LOOP ( 'NONE', ( #180, #91 ) ) ;
#289 = DIRECTION ( 'NONE',  ( -3.491481338843133355E-15, 1.224646799147353207E-16, -1.000000000000000000 ) ) ;
#290 = COORDINATED_UNIVERSAL_TIME_OFFSET ( 1, 0, .AHEAD. ) ;
#291 = CONICAL_SURFACE ( 'NONE', #140, 1.600000000000001421, 0.7853981633974512766 ) ;
#292 = ORIENTED_EDGE ( 'NONE', *, *, #210, .F. ) ;
#293 = CYLINDRICAL_SURFACE ( 'NONE', #308, 1.999999999999995337 ) ;
#294 = CIRCLE ( 'NONE', #249, 1.999999999999994005 ) ;
#295 = LINE ( 'NONE', #200, #208 ) ;
#296 = PLANE ( 'NONE',  #115 ) ;
#297 = VERTEX_POINT ( 'NONE', #51 ) ;
#298 = CARTESIAN_POINT ( 'NONE',  ( 1.392058866457860390E-13, -2.000000000000008882, 59.60000000000000142 ) ) ;
#299 = VECTOR ( 'NONE', #197, 1000.000000000000114 ) ;
#300 = ORIENTED_EDGE ( 'NONE', *, *, #207, .F. ) ;
#301 = CC_DESIGN_APPROVAL ( #6, ( #285 ) ) ;
#302 = APPLICATION_PROTOCOL_DEFINITION ( 'international standard', 'config_control_design', 1994, #306 ) ;
#303 = DIRECTION ( 'NONE',  ( 4.275831445896958607E-31, 1.000000000000000000, 1.224646799147353207E-16 ) ) ;
#304 = ADVANCED_FACE ( 'NONE', ( #251 ), #65, .T. ) ;
#305 = CARTESIAN_POINT ( 'NONE',  ( 1.392058866457861400E-13, -1.999999999999999112, 20.00000000000000000 ) ) ;
#306 = APPLICATION_CONTEXT ( 'configuration controlled 3d designs of mechanical parts and assemblies' ) ;
#307 = COORDINATED_UNIVERSAL_TIME_OFFSET ( 1, 0, .AHEAD. ) ;
#308 = AXIS2_PLACEMENT_3D ( 'NONE', #64, #167, #145 ) ;
#309 = CALENDAR_DATE ( 2023, 31, 3 ) ;
#310 = AXIS2_PLACEMENT_3D ( 'NONE', #29, #248, #27 ) ;
#311 = EDGE_CURVE ( 'NONE', #297, #35, #240, .T. ) ;
#312 = CARTESIAN_POINT ( 'NONE',  ( 2.094888803305880013E-13, -7.347880794884118356E-15, 60.00000000000000000 ) ) ;
#313 = ORIENTED_EDGE ( 'NONE', *, *, #102, .F. ) ;
ENDSEC;
END-ISO-10303-21;
