ISO-10303-21;
HEADER;
FILE_DESCRIPTION (( 'STEP AP203' ),
    '1' );
FILE_NAME ('372734.step',
    '2023-03-31T07:08:58',
    ( '' ),
    ( '' ),
    'SwSTEP 2.0',
    'SolidWorks 2022',
    '' );
FILE_SCHEMA (( 'CONFIG_CONTROL_DESIGN' ));
ENDSEC;

DATA;
#1 = CARTESIAN_POINT ( 'NONE',  ( 1.747700104300202289E-13, -1.600000000000007416, 50.00000000000000000 ) ) ;
#2 = AXIS2_PLACEMENT_3D ( 'NONE', #300, #77, #182 ) ;
#3 = DIRECTION ( 'NONE',  ( 4.275831445896957731E-31, 1.000000000000000000, 1.224646799147353207E-16 ) ) ;
#4 = ORIENTED_EDGE ( 'NONE', *, *, #217, .T. ) ;
#5 = ADVANCED_FACE ( 'NONE', ( #145 ), #153, .T. ) ;
#6 = MANIFOLD_SOLID_BREP ( 'Corps-Déplacer/Copier1[2]', #106 ) ;
#7 = PRODUCT_RELATED_PRODUCT_CATEGORY ( 'detail', '', ( #242 ) ) ;
#8 = DIRECTION ( 'NONE',  ( 0.000000000000000000, 1.000000000000000000, 0.000000000000000000 ) ) ;
#9 = LOCAL_TIME ( 9, 8, 58.00000000000000000, #120 ) ;
#10 = CARTESIAN_POINT ( 'NONE',  ( 3.491481338843133355E-14, -1.224646799147353256E-15, 10.00000000000000000 ) ) ;
#11 = ORIENTED_EDGE ( 'NONE', *, *, #116, .F. ) ;
#12 = APPROVAL_DATE_TIME ( #188, #218 ) ;
#13 = APPLICATION_PROTOCOL_DEFINITION ( 'international standard', 'config_control_design', 1994, #126 ) ;
#14 = CC_DESIGN_PERSON_AND_ORGANIZATION_ASSIGNMENT ( #86, #240, ( #242 ) ) ;
#15 = PERSON_AND_ORGANIZATION_ROLE ( 'creator' ) ;
#16 = ADVANCED_BREP_SHAPE_REPRESENTATION ( '372734', ( #211, #6, #187 ), #28 ) ;
#17 = APPROVAL_STATUS ( 'not_yet_approved' ) ;
#18 = ADVANCED_FACE ( 'NONE', ( #87 ), #287, .F. ) ;
#19 = DIRECTION ( 'NONE',  ( -3.491481338843133355E-15, 1.224646799147353207E-16, -1.000000000000000000 ) ) ;
#20 = ORIENTED_EDGE ( 'NONE', *, *, #92, .T. ) ;
#21 = CARTESIAN_POINT ( 'NONE',  ( 1.745740669421566678E-13, 1.199807826129478012E-32, 50.00000000000000000 ) ) ;
#22 = EDGE_CURVE ( 'NONE', #238, #234, #293, .T. ) ;
#23 = ORIENTED_EDGE ( 'NONE', *, *, #303, .F. ) ;
#24 = DIRECTION ( 'NONE',  ( -4.275831445896958607E-31, -1.000000000000000000, -1.224646799147353207E-16 ) ) ;
#25 = APPROVAL_DATE_TIME ( #294, #88 ) ;
#26 = EDGE_LOOP ( 'NONE', ( #31, #260, #4, #224 ) ) ;
#27 = CARTESIAN_POINT ( 'NONE',  ( -1.282735634334315395E-30, 4.499230946083962375E-32, -3.673900874290041694E-16 ) ) ;
#28 =( GEOMETRIC_REPRESENTATION_CONTEXT ( 3 ) GLOBAL_UNCERTAINTY_ASSIGNED_CONTEXT ( ( #250 ) ) GLOBAL_UNIT_ASSIGNED_CONTEXT ( ( #111, #170, #114 ) ) REPRESENTATION_CONTEXT ( 'NONE', 'WORKASPACE' ) );
#29 = EDGE_CURVE ( 'NONE', #234, #232, #261, .T. ) ;
#30 = DIRECTION ( 'NONE',  ( 0.000000000000000000, 1.000000000000000000, 0.000000000000000000 ) ) ;
#31 = ORIENTED_EDGE ( 'NONE', *, *, #162, .F. ) ;
#32 = ADVANCED_FACE ( 'NONE', ( #308 ), #85, .T. ) ;
#33 = ORGANIZATION ( 'UNSPECIFIED', 'UNSPECIFIED', '' ) ;
#34 = CARTESIAN_POINT ( 'NONE',  ( 0.000000000000000000, 0.000000000000000000, 0.000000000000000000 ) ) ;
#35 = CARTESIAN_POINT ( 'NONE',  ( 1.745740669421566678E-13, -6.123233995736766085E-15, 50.00000000000000000 ) ) ;
#36 = ORIENTED_EDGE ( 'NONE', *, *, #303, .T. ) ;
#37 = AXIS2_PLACEMENT_3D ( 'NONE', #61, #169, #263 ) ;
#38 = LINE ( 'NONE', #81, #65 ) ;
#39 = CARTESIAN_POINT ( 'NONE',  ( 8.551662891793896194E-31, 1.999999999999994893, 2.449293598294700005E-16 ) ) ;
#40 = EDGE_CURVE ( 'NONE', #210, #232, #297, .T. ) ;
#41 = ORIENTED_EDGE ( 'NONE', *, *, #109, .F. ) ;
#42 = CIRCLE ( 'NONE', #90, 1.999999999999994005 ) ;
#43 = ORIENTED_EDGE ( 'NONE', *, *, #98, .F. ) ;
#44 = DIRECTION ( 'NONE',  ( 0.000000000000000000, 1.000000000000000000, 0.000000000000000000 ) ) ;
#45 = SHAPE_DEFINITION_REPRESENTATION ( #181, #16 ) ;
#46 = ADVANCED_FACE ( 'NONE', ( #290 ), #225, .T. ) ;
#47 = DIRECTION ( 'NONE',  ( 0.000000000000000000, 1.000000000000000000, 0.000000000000000000 ) ) ;
#48 = LOCAL_TIME ( 9, 8, 58.00000000000000000, #168 ) ;
#49 = ORIENTED_EDGE ( 'NONE', *, *, #137, .F. ) ;
#50 = DIRECTION ( 'NONE',  ( -3.491481338843133355E-15, 1.224646799147353207E-16, -1.000000000000000000 ) ) ;
#51 = CARTESIAN_POINT ( 'NONE',  ( 8.551662891793908455E-31, 1.999999999999998224, 2.449293598294704442E-16 ) ) ;
#52 = CIRCLE ( 'NONE', #202, 2.000000000000001332 ) ;
#53 = FACE_OUTER_BOUND ( 'NONE', #185, .T. ) ;
#54 = DIRECTION ( 'NONE',  ( -3.491481338843133355E-15, 1.224646799147353207E-16, -1.000000000000000000 ) ) ;
#55 = DIRECTION ( 'NONE',  ( -3.491481338843133355E-15, 1.224646799147353207E-16, -1.000000000000000000 ) ) ;
#56 = VECTOR ( 'NONE', #214, 1000.000000000000000 ) ;
#57 = PLANE ( 'NONE',  #184 ) ;
#58 = ORIENTED_EDGE ( 'NONE', *, *, #40, .T. ) ;
#59 = CARTESIAN_POINT ( 'NONE',  ( 1.745740669421566678E-13, 1.599999999999995204, 50.00000000000000000 ) ) ;
#60 = CIRCLE ( 'NONE', #89, 1.999999999999995781 ) ;
#61 = CARTESIAN_POINT ( 'NONE',  ( 3.491481338843133355E-14, 1.499759782661852681E-32, 10.00000000000000000 ) ) ;
#62 = APPROVAL_STATUS ( 'not_yet_approved' ) ;
#63 = ORIENTED_EDGE ( 'NONE', *, *, #124, .F. ) ;
#64 = CC_DESIGN_APPROVAL ( #218, ( #201 ) ) ;
#65 = VECTOR ( 'NONE', #257, 1000.000000000000000 ) ;
#66 = DATE_TIME_ROLE ( 'creation_date' ) ;
#67 = DIRECTION ( 'NONE',  ( 4.275831445896958607E-31, 1.000000000000000000, 1.224646799147353207E-16 ) ) ;
#68 = CALENDAR_DATE ( 2023, 31, 3 ) ;
#69 = DIRECTION ( 'NONE',  ( 0.000000000000000000, 1.000000000000000000, 0.000000000000000000 ) ) ;
#70 = DIRECTION ( 'NONE',  ( -3.491481338843133355E-15, 1.224646799147353207E-16, -1.000000000000000000 ) ) ;
#71 = DESIGN_CONTEXT ( 'detailed design', #126, 'design' ) ;
#72 = EDGE_CURVE ( 'NONE', #295, #152, #235, .T. ) ;
#73 = CALENDAR_DATE ( 2023, 31, 3 ) ;
#74 = VECTOR ( 'NONE', #253, 1000.000000000000000 ) ;
#75 = ADVANCED_FACE ( 'NONE', ( #97 ), #149, .T. ) ;
#76 = DIRECTION ( 'NONE',  ( -2.382254525458708792E-15, -0.7071067811865495711, -0.7071067811865455743 ) ) ;
#77 = DIRECTION ( 'NONE',  ( -3.491481338843133355E-15, 1.224646799147353207E-16, -1.000000000000000000 ) ) ;
#78 = CARTESIAN_POINT ( 'NONE',  ( 1.770233605404512445E-14, -1.999999999999997113, 10.00000000000000000 ) ) ;
#79 = LOCAL_TIME ( 9, 8, 58.00000000000000000, #241 ) ;
#80 = DIRECTION ( 'NONE',  ( 3.491481338843133355E-15, -1.224646799147353207E-16, 1.000000000000000000 ) ) ;
#81 = CARTESIAN_POINT ( 'NONE',  ( 2.449293598294691623E-16, -1.999999999999994893, -2.449293598294708880E-16 ) ) ;
#82 = ORIENTED_EDGE ( 'NONE', *, *, #29, .F. ) ;
#83 = APPLICATION_PROTOCOL_DEFINITION ( 'international standard', 'config_control_design', 1994, #204 ) ;
#84 = DIRECTION ( 'NONE',  ( -3.491481338843133355E-15, 1.224646799147353207E-16, -1.000000000000000000 ) ) ;
#85 = PLANE ( 'NONE',  #37 ) ;
#86 = PERSON_AND_ORGANIZATION ( #132, #33 ) ;
#87 = FACE_OUTER_BOUND ( 'NONE', #161, .T. ) ;
#88 = APPROVAL ( #146, 'UNSPECIFIED' ) ;
#89 = AXIS2_PLACEMENT_3D ( 'NONE', #175, #50, #246 ) ;
#90 = AXIS2_PLACEMENT_3D ( 'NONE', #262, #190, #282 ) ;
#91 = DIRECTION ( 'NONE',  ( 1.000000000000000000, 0.000000000000000000, 0.000000000000000000 ) ) ;
#92 = EDGE_CURVE ( 'NONE', #292, #160, #118, .T. ) ;
#93 = APPROVAL ( #62, 'UNSPECIFIED' ) ;
#94 = PERSON_AND_ORGANIZATION ( #132, #33 ) ;
#95 = APPROVAL_PERSON_ORGANIZATION ( #288, #218, #307 ) ;
#96 = ORIENTED_EDGE ( 'NONE', *, *, #109, .T. ) ;
#97 = FACE_OUTER_BOUND ( 'NONE', #258, .T. ) ;
#98 = EDGE_CURVE ( 'NONE', #160, #270, #60, .T. ) ;
#99 = DIRECTION ( 'NONE',  ( -3.491481338843133355E-15, 1.224646799147353207E-16, -1.000000000000000000 ) ) ;
#100 = SECURITY_CLASSIFICATION_LEVEL ( 'unclassified' ) ;
#101 = CARTESIAN_POINT ( 'NONE',  ( 0.000000000000000000, 0.000000000000000000, 0.000000000000000000 ) ) ;
#102 = DIRECTION ( 'NONE',  ( 0.000000000000000000, 1.000000000000000000, 0.000000000000000000 ) ) ;
#103 = CARTESIAN_POINT ( 'NONE',  ( 1.770233605404513076E-14, -1.999999999999994005, -6.123194472585358489E-16 ) ) ;
#104 = CARTESIAN_POINT ( 'NONE',  ( 3.491481338843133355E-14, -1.224646799147353256E-15, 10.00000000000000000 ) ) ;
#105 = LINE ( 'NONE', #157, #172 ) ;
#106 = CLOSED_SHELL ( 'NONE', ( #229, #244, #215, #32 ) ) ;
#107 = CC_DESIGN_APPROVAL ( #93, ( #304 ) ) ;
#108 = DIRECTION ( 'NONE',  ( -3.491481338843133355E-15, 1.224646799147353207E-16, -1.000000000000000000 ) ) ;
#109 = EDGE_CURVE ( 'NONE', #195, #270, #273, .T. ) ;
#110 = CC_DESIGN_PERSON_AND_ORGANIZATION_ASSIGNMENT ( #264, #15, ( #201 ) ) ;
#111 =( LENGTH_UNIT ( ) NAMED_UNIT ( * ) SI_UNIT ( .MILLI., .METRE. ) );
#112 = AXIS2_PLACEMENT_3D ( 'NONE', #21, #19, #67 ) ;
#113 = ADVANCED_FACE ( 'NONE', ( #53 ), #200, .F. ) ;
#114 =( NAMED_UNIT ( * ) SI_UNIT ( $, .STERADIAN. ) SOLID_ANGLE_UNIT ( ) );
#115 = DATE_AND_TIME ( #285, #286 ) ;
#116 = EDGE_CURVE ( 'NONE', #152, #295, #226, .T. ) ;
#117 = DIRECTION ( 'NONE',  ( -3.491481338843133355E-15, 1.224646799147353207E-16, -1.000000000000000000 ) ) ;
#118 = LINE ( 'NONE', #199, #122 ) ;
#119 = CC_DESIGN_PERSON_AND_ORGANIZATION_ASSIGNMENT ( #123, #249, ( #304 ) ) ;
#120 = COORDINATED_UNIVERSAL_TIME_OFFSET ( 1, 0, .AHEAD. ) ;
#121 = EDGE_LOOP ( 'NONE', ( #36, #58 ) ) ;
#122 = VECTOR ( 'NONE', #296, 1000.000000000000000 ) ;
#123 = PERSON_AND_ORGANIZATION ( #132, #33 ) ;
#124 = EDGE_CURVE ( 'NONE', #234, #238, #142, .T. ) ;
#125 = DIRECTION ( 'NONE',  ( 4.275831445896959482E-31, 1.000000000000000000, 1.224646799147353207E-16 ) ) ;
#126 = APPLICATION_CONTEXT ( 'configuration controlled 3d designs of mechanical parts and assemblies' ) ;
#127 = DATE_TIME_ROLE ( 'classification_date' ) ;
#128 = CARTESIAN_POINT ( 'NONE',  ( 0.000000000000000000, 0.000000000000000000, 0.000000000000000000 ) ) ;
#129 = ORIENTED_EDGE ( 'NONE', *, *, #40, .F. ) ;
#130 = DIRECTION ( 'NONE',  ( -3.491481338843133355E-15, 1.224646799147353207E-16, -1.000000000000000000 ) ) ;
#131 = CARTESIAN_POINT ( 'NONE',  ( 3.491481338843133355E-14, 1.999999999999994449, 10.00000000000000000 ) ) ;
#132 = PERSON ( 'UNSPECIFIED', 'UNSPECIFIED', 'UNSPECIFIED', ('UNSPECIFIED'), ('UNSPECIFIED'), ('UNSPECIFIED') ) ;
#133 = EDGE_CURVE ( 'NONE', #292, #195, #52, .T. ) ;
#134 = CC_DESIGN_SECURITY_CLASSIFICATION ( #154, ( #304 ) ) ;
#135 = ORIENTED_EDGE ( 'NONE', *, *, #133, .T. ) ;
#136 = CARTESIAN_POINT ( 'NONE',  ( 3.491481338843133355E-14, 1.999999999999994449, 10.00000000000000000 ) ) ;
#137 = EDGE_CURVE ( 'NONE', #238, #210, #38, .T. ) ;
#138 = MECHANICAL_CONTEXT ( 'NONE', #204, 'mechanical' ) ;
#139 = ORIENTED_EDGE ( 'NONE', *, *, #72, .F. ) ;
#140 = ORIENTED_EDGE ( 'NONE', *, *, #162, .T. ) ;
#141 = AXIS2_PLACEMENT_3D ( 'NONE', #227, #247, #254 ) ;
#142 = CIRCLE ( 'NONE', #298, 1.999999999999995781 ) ;
#143 = EDGE_CURVE ( 'NONE', #195, #292, #266, .T. ) ;
#144 = APPROVAL_ROLE ( '' ) ;
#145 = FACE_OUTER_BOUND ( 'NONE', #306, .T. ) ;
#146 = APPROVAL_STATUS ( 'not_yet_approved' ) ;
#147 = CC_DESIGN_DATE_AND_TIME_ASSIGNMENT ( #284, #66, ( #201 ) ) ;
#148 = ORIENTED_EDGE ( 'NONE', *, *, #92, .F. ) ;
#149 = CYLINDRICAL_SURFACE ( 'NONE', #265, 1.999999999999998224 ) ;
#150 = CALENDAR_DATE ( 2023, 31, 3 ) ;
#151 = ORIENTED_EDGE ( 'NONE', *, *, #143, .F. ) ;
#152 = VERTEX_POINT ( 'NONE', #59 ) ;
#153 = CONICAL_SURFACE ( 'NONE', #176, 1.600000000000001421, 0.7853981633974512766 ) ;
#154 = SECURITY_CLASSIFICATION ( '', '', #100 ) ;
#155 = DIRECTION ( 'NONE',  ( -3.491481338843133355E-15, 1.224646799147353207E-16, -1.000000000000000000 ) ) ;
#156 = FACE_OUTER_BOUND ( 'NONE', #310, .T. ) ;
#157 = CARTESIAN_POINT ( 'NONE',  ( 1.745740669421566678E-13, 1.599999999999995204, 50.00000000000000000 ) ) ;
#158 = CC_DESIGN_APPROVAL ( #88, ( #154 ) ) ;
#159 = EDGE_CURVE ( 'NONE', #270, #160, #245, .T. ) ;
#160 = VERTEX_POINT ( 'NONE', #259 ) ;
#161 = EDGE_LOOP ( 'NONE', ( #11, #139 ) ) ;
#162 = EDGE_CURVE ( 'NONE', #295, #292, #228, .T. ) ;
#163 = DIRECTION ( 'NONE',  ( 0.000000000000000000, 1.000000000000000000, 0.000000000000000000 ) ) ;
#164 = APPROVAL_PERSON_ORGANIZATION ( #94, #88, #272 ) ;
#165 = ORIENTED_EDGE ( 'NONE', *, *, #116, .T. ) ;
#166 = CARTESIAN_POINT ( 'NONE',  ( 1.042910732573546550E-13, -2.000000000000007550, 49.60000000000000853 ) ) ;
#167 = ORIENTED_EDGE ( 'NONE', *, *, #29, .T. ) ;
#168 = COORDINATED_UNIVERSAL_TIME_OFFSET ( 1, 0, .AHEAD. ) ;
#169 = DIRECTION ( 'NONE',  ( 3.491481338843133355E-15, -1.224646799147353207E-16, 1.000000000000000000 ) ) ;
#170 =( NAMED_UNIT ( * ) PLANE_ANGLE_UNIT ( ) SI_UNIT ( $, .RADIAN. ) );
#171 = AXIS2_PLACEMENT_3D ( 'NONE', #269, #99, #69 ) ;
#172 = VECTOR ( 'NONE', #233, 1000.000000000000114 ) ;
#173 = CARTESIAN_POINT ( 'NONE',  ( 1.740962070982345820E-13, -1.600000000000007416, 50.00000000000000000 ) ) ;
#174 = ORIENTED_EDGE ( 'NONE', *, *, #159, .T. ) ;
#175 = CARTESIAN_POINT ( 'NONE',  ( 3.491481338843133355E-14, -1.224646799147353256E-15, 10.00000000000000000 ) ) ;
#176 = AXIS2_PLACEMENT_3D ( 'NONE', #243, #117, #47 ) ;
#177 = ORIENTED_EDGE ( 'NONE', *, *, #22, .T. ) ;
#178 = AXIS2_PLACEMENT_3D ( 'NONE', #10, #54, #163 ) ;
#179 = CARTESIAN_POINT ( 'NONE',  ( 1.731774744066194397E-13, 1.999999999999995337, 49.60000000000000853 ) ) ;
#180 = ORIENTED_EDGE ( 'NONE', *, *, #159, .F. ) ;
#181 = PRODUCT_DEFINITION_SHAPE ( 'NONE', 'NONE',  #201 ) ;
#182 = DIRECTION ( 'NONE',  ( 4.275831445896958607E-31, 1.000000000000000000, 1.224646799147353207E-16 ) ) ;
#183 = CYLINDRICAL_SURFACE ( 'NONE', #252, 1.999999999999994893 ) ;
#184 = AXIS2_PLACEMENT_3D ( 'NONE', #208, #80, #309 ) ;
#185 = EDGE_LOOP ( 'NONE', ( #174, #222 ) ) ;
#186 = CYLINDRICAL_SURFACE ( 'NONE', #2, 1.999999999999994893 ) ;
#187 = AXIS2_PLACEMENT_3D ( 'NONE', #193, #305, #91 ) ;
#188 = DATE_AND_TIME ( #212, #79 ) ;
#189 = CC_DESIGN_PERSON_AND_ORGANIZATION_ASSIGNMENT ( #311, #271, ( #304 ) ) ;
#190 = DIRECTION ( 'NONE',  ( -3.491481338843133355E-15, 1.224646799147353207E-16, -1.000000000000000000 ) ) ;
#191 = AXIS2_PLACEMENT_3D ( 'NONE', #221, #84, #44 ) ;
#192 = LOCAL_TIME ( 9, 8, 58.00000000000000000, #197 ) ;
#193 = CARTESIAN_POINT ( 'NONE',  ( 0.000000000000000000, 0.000000000000000000, 0.000000000000000000 ) ) ;
#194 = PERSON_AND_ORGANIZATION ( #132, #33 ) ;
#195 = VERTEX_POINT ( 'NONE', #179 ) ;
#196 = DIRECTION ( 'NONE',  ( 3.491481338843133355E-15, -1.224646799147353207E-16, 1.000000000000000000 ) ) ;
#197 = COORDINATED_UNIVERSAL_TIME_OFFSET ( 1, 0, .AHEAD. ) ;
#198 = ADVANCED_FACE ( 'NONE', ( #156 ), #255, .T. ) ;
#199 = CARTESIAN_POINT ( 'NONE',  ( 2.449293598294696061E-16, -1.999999999999998224, -2.449293598294712331E-16 ) ) ;
#200 = PLANE ( 'NONE',  #274 ) ;
#201 = PRODUCT_DEFINITION ( 'UNKNOWN', '', #304, #71 ) ;
#202 = AXIS2_PLACEMENT_3D ( 'NONE', #276, #108, #203 ) ;
#203 = DIRECTION ( 'NONE',  ( 0.000000000000000000, 1.000000000000000000, 0.000000000000000000 ) ) ;
#204 = APPLICATION_CONTEXT ( 'configuration controlled 3d designs of mechanical parts and assemblies' ) ;
#205 = FACE_OUTER_BOUND ( 'NONE', #248, .T. ) ;
#206 = ORIENTED_EDGE ( 'NONE', *, *, #137, .T. ) ;
#207 = DIRECTION ( 'NONE',  ( 4.275831445896958607E-31, 1.000000000000000000, 1.224646799147353207E-16 ) ) ;
#208 = CARTESIAN_POINT ( 'NONE',  ( -6.413678171671576976E-31, 2.249615473041981187E-32, -1.836950437145020847E-16 ) ) ;
#209 = APPROVAL_PERSON_ORGANIZATION ( #216, #93, #144 ) ;
#210 = VERTEX_POINT ( 'NONE', #103 ) ;
#211 = MANIFOLD_SOLID_BREP ( 'Corps-Déplacer/Copier1[1]', #251 ) ;
#212 = CALENDAR_DATE ( 2023, 31, 3 ) ;
#213 = EDGE_LOOP ( 'NONE', ( #277, #206, #23, #82 ) ) ;
#214 = DIRECTION ( 'NONE',  ( -3.491481338843133355E-15, 1.224646799147353207E-16, -1.000000000000000000 ) ) ;
#215 = ADVANCED_FACE ( 'NONE', ( #205 ), #186, .T. ) ;
#216 = PERSON_AND_ORGANIZATION ( #132, #33 ) ;
#217 = EDGE_CURVE ( 'NONE', #152, #195, #105, .T. ) ;
#218 = APPROVAL ( #17, 'UNSPECIFIED' ) ;
#219 = APPROVAL_DATE_TIME ( #115, #93 ) ;
#220 = AXIS2_PLACEMENT_3D ( 'NONE', #35, #237, #30 ) ;
#221 = CARTESIAN_POINT ( 'NONE',  ( 3.491481338843133355E-14, -1.224646799147353256E-15, 10.00000000000000000 ) ) ;
#222 = ORIENTED_EDGE ( 'NONE', *, *, #98, .T. ) ;
#223 = CARTESIAN_POINT ( 'NONE',  ( 3.491481338843133355E-14, 1.499759782661852681E-32, 10.00000000000000000 ) ) ;
#224 = ORIENTED_EDGE ( 'NONE', *, *, #133, .F. ) ;
#225 = CONICAL_SURFACE ( 'NONE', #141, 1.600000000000001421, 0.7853981633974512766 ) ;
#226 = CIRCLE ( 'NONE', #220, 1.600000000000001421 ) ;
#227 = CARTESIAN_POINT ( 'NONE',  ( 1.745740669421566678E-13, -6.123233995736766085E-15, 50.00000000000000000 ) ) ;
#228 = LINE ( 'NONE', #1, #230 ) ;
#229 = ADVANCED_FACE ( 'NONE', ( #256 ), #183, .T. ) ;
#230 = VECTOR ( 'NONE', #76, 1000.000000000000114 ) ;
#231 = DIRECTION ( 'NONE',  ( -3.491481338843133355E-15, 1.224646799147353207E-16, -1.000000000000000000 ) ) ;
#232 = VERTEX_POINT ( 'NONE', #302 ) ;
#233 = DIRECTION ( 'NONE',  ( -2.468850131082257455E-15, 0.7071067811865497932, -0.7071067811865453523 ) ) ;
#234 = VERTEX_POINT ( 'NONE', #131 ) ;
#235 = CIRCLE ( 'NONE', #171, 1.600000000000001421 ) ;
#236 = AXIS2_PLACEMENT_3D ( 'NONE', #128, #231, #3 ) ;
#237 = DIRECTION ( 'NONE',  ( -3.491481338843133355E-15, 1.224646799147353207E-16, -1.000000000000000000 ) ) ;
#238 = VERTEX_POINT ( 'NONE', #78 ) ;
#239 = AXIS2_PLACEMENT_3D ( 'NONE', #27, #70, #125 ) ;
#240 = PERSON_AND_ORGANIZATION_ROLE ( 'design_owner' ) ;
#241 = COORDINATED_UNIVERSAL_TIME_OFFSET ( 1, 0, .AHEAD. ) ;
#242 = PRODUCT ( '372734', '372734', '', ( #138 ) ) ;
#243 = CARTESIAN_POINT ( 'NONE',  ( 1.745740669421566678E-13, -6.123233995736766085E-15, 50.00000000000000000 ) ) ;
#244 = ADVANCED_FACE ( 'NONE', ( #279 ), #57, .F. ) ;
#245 = CIRCLE ( 'NONE', #178, 1.999999999999995781 ) ;
#246 = DIRECTION ( 'NONE',  ( 0.000000000000000000, 1.000000000000000000, 0.000000000000000000 ) ) ;
#247 = DIRECTION ( 'NONE',  ( -3.491481338843133355E-15, 1.224646799147353207E-16, -1.000000000000000000 ) ) ;
#248 = EDGE_LOOP ( 'NONE', ( #49, #177, #167, #129 ) ) ;
#249 = PERSON_AND_ORGANIZATION_ROLE ( 'design_supplier' ) ;
#250 = UNCERTAINTY_MEASURE_WITH_UNIT (LENGTH_MEASURE( 1.000000000000000082E-05 ), #111, 'distance_accuracy_value', 'NONE');
#251 = CLOSED_SHELL ( 'NONE', ( #5, #198, #113, #75, #46, #18 ) ) ;
#252 = AXIS2_PLACEMENT_3D ( 'NONE', #34, #130, #207 ) ;
#253 = DIRECTION ( 'NONE',  ( -3.491481338843133355E-15, 1.224646799147353207E-16, -1.000000000000000000 ) ) ;
#254 = DIRECTION ( 'NONE',  ( 0.000000000000000000, 1.000000000000000000, 0.000000000000000000 ) ) ;
#255 = CYLINDRICAL_SURFACE ( 'NONE', #236, 1.999999999999998224 ) ;
#256 = FACE_OUTER_BOUND ( 'NONE', #213, .T. ) ;
#257 = DIRECTION ( 'NONE',  ( -3.491481338843133355E-15, 1.224646799147353207E-16, -1.000000000000000000 ) ) ;
#258 = EDGE_LOOP ( 'NONE', ( #148, #135, #96, #43 ) ) ;
#259 = CARTESIAN_POINT ( 'NONE',  ( 1.042910732573548064E-13, -1.999999999999997113, 10.00000000000000000 ) ) ;
#260 = ORIENTED_EDGE ( 'NONE', *, *, #72, .T. ) ;
#261 = LINE ( 'NONE', #39, #56 ) ;
#262 = CARTESIAN_POINT ( 'NONE',  ( -1.282735634334315395E-30, 4.499230946083962375E-32, -3.673900874290041694E-16 ) ) ;
#263 = DIRECTION ( 'NONE',  ( -4.275831445896958607E-31, -1.000000000000000000, -1.224646799147353207E-16 ) ) ;
#264 = PERSON_AND_ORGANIZATION ( #132, #33 ) ;
#265 = AXIS2_PLACEMENT_3D ( 'NONE', #101, #155, #313 ) ;
#266 = CIRCLE ( 'NONE', #278, 2.000000000000001332 ) ;
#267 = COORDINATED_UNIVERSAL_TIME_OFFSET ( 1, 0, .AHEAD. ) ;
#268 = ORIENTED_EDGE ( 'NONE', *, *, #217, .F. ) ;
#269 = CARTESIAN_POINT ( 'NONE',  ( 1.745740669421566678E-13, -6.123233995736766085E-15, 50.00000000000000000 ) ) ;
#270 = VERTEX_POINT ( 'NONE', #136 ) ;
#271 = PERSON_AND_ORGANIZATION_ROLE ( 'creator' ) ;
#272 = APPROVAL_ROLE ( '' ) ;
#273 = LINE ( 'NONE', #51, #74 ) ;
#274 = AXIS2_PLACEMENT_3D ( 'NONE', #223, #196, #24 ) ;
#275 = CC_DESIGN_PERSON_AND_ORGANIZATION_ASSIGNMENT ( #194, #291, ( #154 ) ) ;
#276 = CARTESIAN_POINT ( 'NONE',  ( 1.731774744066194397E-13, -6.074248123770872657E-15, 49.60000000000000853 ) ) ;
#277 = ORIENTED_EDGE ( 'NONE', *, *, #124, .T. ) ;
#278 = AXIS2_PLACEMENT_3D ( 'NONE', #299, #55, #102 ) ;
#279 = FACE_OUTER_BOUND ( 'NONE', #121, .T. ) ;
#280 = DIRECTION ( 'NONE',  ( -3.491481338843133355E-15, 1.224646799147353207E-16, -1.000000000000000000 ) ) ;
#281 = CC_DESIGN_DATE_AND_TIME_ASSIGNMENT ( #312, #127, ( #154 ) ) ;
#282 = DIRECTION ( 'NONE',  ( 4.275831445896959482E-31, 1.000000000000000000, 1.224646799147353207E-16 ) ) ;
#283 = EDGE_LOOP ( 'NONE', ( #63, #301 ) ) ;
#284 = DATE_AND_TIME ( #68, #48 ) ;
#285 = CALENDAR_DATE ( 2023, 31, 3 ) ;
#286 = LOCAL_TIME ( 9, 8, 58.00000000000000000, #267 ) ;
#287 = PLANE ( 'NONE',  #112 ) ;
#288 = PERSON_AND_ORGANIZATION ( #132, #33 ) ;
#289 = ORIENTED_EDGE ( 'NONE', *, *, #143, .T. ) ;
#290 = FACE_OUTER_BOUND ( 'NONE', #26, .T. ) ;
#291 = PERSON_AND_ORGANIZATION_ROLE ( 'classification_officer' ) ;
#292 = VERTEX_POINT ( 'NONE', #166 ) ;
#293 = CIRCLE ( 'NONE', #191, 1.999999999999995781 ) ;
#294 = DATE_AND_TIME ( #73, #192 ) ;
#295 = VERTEX_POINT ( 'NONE', #173 ) ;
#296 = DIRECTION ( 'NONE',  ( -3.491481338843133355E-15, 1.224646799147353207E-16, -1.000000000000000000 ) ) ;
#297 = CIRCLE ( 'NONE', #239, 1.999999999999994005 ) ;
#298 = AXIS2_PLACEMENT_3D ( 'NONE', #104, #280, #8 ) ;
#299 = CARTESIAN_POINT ( 'NONE',  ( 1.731774744066194397E-13, -6.074248123770872657E-15, 49.60000000000000853 ) ) ;
#300 = CARTESIAN_POINT ( 'NONE',  ( 0.000000000000000000, 0.000000000000000000, 0.000000000000000000 ) ) ;
#301 = ORIENTED_EDGE ( 'NONE', *, *, #22, .F. ) ;
#302 = CARTESIAN_POINT ( 'NONE',  ( -4.275693451549261261E-31, 1.999999999999994005, -1.224607275995342675E-16 ) ) ;
#303 = EDGE_CURVE ( 'NONE', #232, #210, #42, .T. ) ;
#304 = PRODUCT_DEFINITION_FORMATION_WITH_SPECIFIED_SOURCE ( 'ANY', '', #242, .NOT_KNOWN. ) ;
#305 = DIRECTION ( 'NONE',  ( 0.000000000000000000, 0.000000000000000000, 1.000000000000000000 ) ) ;
#306 = EDGE_LOOP ( 'NONE', ( #165, #140, #151, #268 ) ) ;
#307 = APPROVAL_ROLE ( '' ) ;
#308 = FACE_OUTER_BOUND ( 'NONE', #283, .T. ) ;
#309 = DIRECTION ( 'NONE',  ( -4.275831445896958607E-31, -1.000000000000000000, -1.224646799147353207E-16 ) ) ;
#310 = EDGE_LOOP ( 'NONE', ( #289, #20, #180, #41 ) ) ;
#311 = PERSON_AND_ORGANIZATION ( #132, #33 ) ;
#312 = DATE_AND_TIME ( #150, #9 ) ;
#313 = DIRECTION ( 'NONE',  ( 4.275831445896957731E-31, 1.000000000000000000, 1.224646799147353207E-16 ) ) ;
ENDSEC;
END-ISO-10303-21;
