ISO-10303-21;
HEADER;
FILE_DESCRIPTION (( 'STEP AP203' ),
    '1' );
FILE_NAME ('372733.step',
    '2023-03-31T07:08:58',
    ( '' ),
    ( '' ),
    'SwSTEP 2.0',
    'SolidWorks 2022',
    '' );
FILE_SCHEMA (( 'CONFIG_CONTROL_DESIGN' ));
ENDSEC;

DATA;
#1 = CARTESIAN_POINT ( 'NONE',  ( 0.000000000000000000, 0.000000000000000000, 0.000000000000000000 ) ) ;
#2 = CYLINDRICAL_SURFACE ( 'NONE', #113, 1.999999999999996669 ) ;
#3 = EDGE_LOOP ( 'NONE', ( #36, #7, #286, #18 ) ) ;
#4 = CARTESIAN_POINT ( 'NONE',  ( 1.382626610181881061E-13, 1.999999999999994005, 39.60000000000000853 ) ) ;
#5 =( GEOMETRIC_REPRESENTATION_CONTEXT ( 3 ) GLOBAL_UNCERTAINTY_ASSIGNED_CONTEXT ( ( #291 ) ) GLOBAL_UNIT_ASSIGNED_CONTEXT ( ( #282, #288, #262 ) ) REPRESENTATION_CONTEXT ( 'NONE', 'WORKASPACE' ) );
#6 = DIRECTION ( 'NONE',  ( 4.275831445896959482E-31, 1.000000000000000000, 1.224646799147353207E-16 ) ) ;
#7 = ORIENTED_EDGE ( 'NONE', *, *, #311, .T. ) ;
#8 = PERSON_AND_ORGANIZATION_ROLE ( 'creator' ) ;
#9 = ORIENTED_EDGE ( 'NONE', *, *, #62, .F. ) ;
#10 = CARTESIAN_POINT ( 'NONE',  ( 1.382626610181881061E-13, -4.849601324623519598E-15, 39.60000000000000853 ) ) ;
#11 = PRODUCT ( '372733', '372733', '', ( #211 ) ) ;
#12 = PRODUCT_DEFINITION ( 'UNKNOWN', '', #158, #146 ) ;
#13 = ADVANCED_FACE ( 'NONE', ( #38 ), #229, .T. ) ;
#14 = COORDINATED_UNIVERSAL_TIME_OFFSET ( 1, 0, .AHEAD. ) ;
#15 = ORIENTED_EDGE ( 'NONE', *, *, #311, .F. ) ;
#16 = EDGE_LOOP ( 'NONE', ( #228, #61, #200, #169 ) ) ;
#17 = CC_DESIGN_APPROVAL ( #223, ( #158 ) ) ;
#18 = ORIENTED_EDGE ( 'NONE', *, *, #109, .F. ) ;
#19 = CC_DESIGN_DATE_AND_TIME_ASSIGNMENT ( #258, #94, ( #12 ) ) ;
#20 = CARTESIAN_POINT ( 'NONE',  ( 1.396592535537253342E-13, 1.599999999999994094, 40.00000000000000000 ) ) ;
#21 = APPROVAL_STATUS ( 'not_yet_approved' ) ;
#22 = FACE_OUTER_BOUND ( 'NONE', #3, .T. ) ;
#23 = VECTOR ( 'NONE', #85, 1000.000000000000000 ) ;
#24 = CARTESIAN_POINT ( 'NONE',  ( -1.282741596833768882E-30, 4.499251859716778976E-32, -3.673917951567205431E-16 ) ) ;
#25 = ORIENTED_EDGE ( 'NONE', *, *, #207, .T. ) ;
#26 = ADVANCED_FACE ( 'NONE', ( #287 ), #145, .F. ) ;
#27 = DIRECTION ( 'NONE',  ( -3.491481338843133355E-15, 1.224646799147353207E-16, -1.000000000000000000 ) ) ;
#28 = DIRECTION ( 'NONE',  ( -3.491481338843133355E-15, 1.224646799147353207E-16, -1.000000000000000000 ) ) ;
#29 = EDGE_LOOP ( 'NONE', ( #91, #65, #149, #257 ) ) ;
#30 = AXIS2_PLACEMENT_3D ( 'NONE', #69, #41, #34 ) ;
#31 = CARTESIAN_POINT ( 'NONE',  ( 1.382626610181881061E-13, -4.849601324623519598E-15, 39.60000000000000853 ) ) ;
#32 = COORDINATED_UNIVERSAL_TIME_OFFSET ( 1, 0, .AHEAD. ) ;
#33 = VERTEX_POINT ( 'NONE', #124 ) ;
#34 = DIRECTION ( 'NONE',  ( 4.275831445896958607E-31, 1.000000000000000000, 1.224646799147353207E-16 ) ) ;
#35 = CC_DESIGN_PERSON_AND_ORGANIZATION_ASSIGNMENT ( #128, #72, ( #158 ) ) ;
#36 = ORIENTED_EDGE ( 'NONE', *, *, #107, .F. ) ;
#37 = ORIENTED_EDGE ( 'NONE', *, *, #111, .T. ) ;
#38 = FACE_OUTER_BOUND ( 'NONE', #306, .T. ) ;
#39 = EDGE_LOOP ( 'NONE', ( #132, #44, #299, #204 ) ) ;
#40 = CC_DESIGN_PERSON_AND_ORGANIZATION_ASSIGNMENT ( #96, #60, ( #11 ) ) ;
#41 = DIRECTION ( 'NONE',  ( -3.491481338843133355E-15, 1.224646799147353207E-16, -1.000000000000000000 ) ) ;
#42 = AXIS2_PLACEMENT_3D ( 'NONE', #1, #27, #50 ) ;
#43 = SHAPE_DEFINITION_REPRESENTATION ( #202, #313 ) ;
#44 = ORIENTED_EDGE ( 'NONE', *, *, #161, .T. ) ;
#45 = CARTESIAN_POINT ( 'NONE',  ( 8.551662891793892690E-31, 1.999999999999994005, 2.449293598294699019E-16 ) ) ;
#46 = DIRECTION ( 'NONE',  ( -3.491481338843133355E-15, 1.224646799147353207E-16, -1.000000000000000000 ) ) ;
#47 = LINE ( 'NONE', #45, #130 ) ;
#48 = ADVANCED_FACE ( 'NONE', ( #213 ), #254, .T. ) ;
#49 = APPLICATION_CONTEXT ( 'configuration controlled 3d designs of mechanical parts and assemblies' ) ;
#50 = DIRECTION ( 'NONE',  ( 4.275831445896959482E-31, 1.000000000000000000, 1.224646799147353207E-16 ) ) ;
#51 = DIRECTION ( 'NONE',  ( -3.491481338843133355E-15, 1.224646799147353207E-16, -1.000000000000000000 ) ) ;
#52 = AXIS2_PLACEMENT_3D ( 'NONE', #215, #247, #108 ) ;
#53 = APPROVAL_PERSON_ORGANIZATION ( #234, #136, #71 ) ;
#54 = CARTESIAN_POINT ( 'NONE',  ( 2.449293598294690637E-16, -1.999999999999994005, -2.449293598294707400E-16 ) ) ;
#55 = PERSON ( 'UNSPECIFIED', 'UNSPECIFIED', 'UNSPECIFIED', ('UNSPECIFIED'), ('UNSPECIFIED'), ('UNSPECIFIED') ) ;
#56 = ORIENTED_EDGE ( 'NONE', *, *, #216, .F. ) ;
#57 = DIRECTION ( 'NONE',  ( -3.491481338843133355E-15, 1.224646799147353207E-16, -1.000000000000000000 ) ) ;
#58 = VECTOR ( 'NONE', #238, 1000.000000000000000 ) ;
#59 = APPROVAL_PERSON_ORGANIZATION ( #183, #223, #164 ) ;
#60 = PERSON_AND_ORGANIZATION_ROLE ( 'design_owner' ) ;
#61 = ORIENTED_EDGE ( 'NONE', *, *, #107, .T. ) ;
#62 = EDGE_CURVE ( 'NONE', #181, #231, #179, .T. ) ;
#63 = CARTESIAN_POINT ( 'NONE',  ( 0.000000000000000000, 0.000000000000000000, 0.000000000000000000 ) ) ;
#64 = ORIENTED_EDGE ( 'NONE', *, *, #161, .F. ) ;
#65 = ORIENTED_EDGE ( 'NONE', *, *, #191, .T. ) ;
#66 = AXIS2_PLACEMENT_3D ( 'NONE', #139, #165, #260 ) ;
#67 = ORGANIZATION ( 'UNSPECIFIED', 'UNSPECIFIED', '' ) ;
#68 = CC_DESIGN_APPROVAL ( #212, ( #114 ) ) ;
#69 = CARTESIAN_POINT ( 'NONE',  ( 1.396592535537253342E-13, 1.199807826129477876E-32, 40.00000000000000000 ) ) ;
#70 = EDGE_CURVE ( 'NONE', #135, #277, #95, .T. ) ;
#71 = APPROVAL_ROLE ( '' ) ;
#72 = PERSON_AND_ORGANIZATION_ROLE ( 'creator' ) ;
#73 = APPLICATION_CONTEXT ( 'configuration controlled 3d designs of mechanical parts and assemblies' ) ;
#74 = CARTESIAN_POINT ( 'NONE',  ( -6.413707984168844411E-31, 2.249625929858389488E-32, -1.836958975783602715E-16 ) ) ;
#75 = AXIS2_PLACEMENT_3D ( 'NONE', #92, #261, #283 ) ;
#76 = PERSON_AND_ORGANIZATION ( #55, #67 ) ;
#77 = AXIS2_PLACEMENT_3D ( 'NONE', #63, #285, #308 ) ;
#78 = DIRECTION ( 'NONE',  ( 3.491481338843133355E-15, -1.224646799147353207E-16, 1.000000000000000000 ) ) ;
#79 = PERSON_AND_ORGANIZATION ( #55, #67 ) ;
#80 = AXIS2_PLACEMENT_3D ( 'NONE', #289, #209, #266 ) ;
#81 = CC_DESIGN_PERSON_AND_ORGANIZATION_ASSIGNMENT ( #265, #8, ( #12 ) ) ;
#82 = DIRECTION ( 'NONE',  ( 4.275831445896958607E-31, 1.000000000000000000, 1.224646799147353207E-16 ) ) ;
#83 = ADVANCED_FACE ( 'NONE', ( #22 ), #245, .T. ) ;
#84 = PLANE ( 'NONE',  #224 ) ;
#85 = DIRECTION ( 'NONE',  ( -2.382254525458687493E-15, -0.7071067811865554553, -0.7071067811865395791 ) ) ;
#86 = CIRCLE ( 'NONE', #236, 1.999999999999994449 ) ;
#87 = DIRECTION ( 'NONE',  ( -3.491481338843133355E-15, 1.224646799147353207E-16, -1.000000000000000000 ) ) ;
#88 = CARTESIAN_POINT ( 'NONE',  ( 1.745740669421566678E-14, -6.123233995736766282E-16, 5.000000000000000000 ) ) ;
#89 = ORIENTED_EDGE ( 'NONE', *, *, #155, .T. ) ;
#90 = CALENDAR_DATE ( 2023, 31, 3 ) ;
#91 = ORIENTED_EDGE ( 'NONE', *, *, #253, .T. ) ;
#92 = CARTESIAN_POINT ( 'NONE',  ( 1.396592535537253342E-13, -4.898587196589413026E-15, 40.00000000000000000 ) ) ;
#93 = CIRCLE ( 'NONE', #248, 1.999999999999994449 ) ;
#94 = DATE_TIME_ROLE ( 'creation_date' ) ;
#95 = LINE ( 'NONE', #304, #197 ) ;
#96 = PERSON_AND_ORGANIZATION ( #55, #67 ) ;
#97 = VERTEX_POINT ( 'NONE', #129 ) ;
#98 = CIRCLE ( 'NONE', #275, 1.999999999999994005 ) ;
#99 = APPROVAL_STATUS ( 'not_yet_approved' ) ;
#100 = ADVANCED_FACE ( 'NONE', ( #312 ), #220, .F. ) ;
#101 = CIRCLE ( 'NONE', #217, 1.999999999999998668 ) ;
#102 = LINE ( 'NONE', #150, #58 ) ;
#103 = CARTESIAN_POINT ( 'NONE',  ( 1.745740669421566678E-14, -6.123233995736766282E-16, 5.000000000000000000 ) ) ;
#104 = CARTESIAN_POINT ( 'NONE',  ( 0.000000000000000000, 0.000000000000000000, 0.000000000000000000 ) ) ;
#105 = MANIFOLD_SOLID_BREP ( 'Corps-Déplacer/Copier1[2]', #142 ) ;
#106 = LINE ( 'NONE', #300, #23 ) ;
#107 = EDGE_CURVE ( 'NONE', #272, #159, #290, .T. ) ;
#108 = DIRECTION ( 'NONE',  ( 0.000000000000000000, 1.000000000000000000, 0.000000000000000000 ) ) ;
#109 = EDGE_CURVE ( 'NONE', #159, #302, #86, .T. ) ;
#110 = CYLINDRICAL_SURFACE ( 'NONE', #242, 1.999999999999994005 ) ;
#111 = EDGE_CURVE ( 'NONE', #259, #97, #98, .T. ) ;
#112 = DIRECTION ( 'NONE',  ( 0.000000000000000000, 1.000000000000000000, 0.000000000000000000 ) ) ;
#113 = AXIS2_PLACEMENT_3D ( 'NONE', #178, #256, #82 ) ;
#114 = SECURITY_CLASSIFICATION ( '', '', #151 ) ;
#115 = CARTESIAN_POINT ( 'NONE',  ( 1.745740669421566678E-14, 1.499759782661852955E-32, 5.000000000000000000 ) ) ;
#116 = PRODUCT_RELATED_PRODUCT_CATEGORY ( 'detail', '', ( #11 ) ) ;
#117 = DATE_AND_TIME ( #233, #249 ) ;
#118 = VECTOR ( 'NONE', #239, 1000.000000000000000 ) ;
#119 = CC_DESIGN_DATE_AND_TIME_ASSIGNMENT ( #190, #172, ( #114 ) ) ;
#120 = PLANE ( 'NONE',  #185 ) ;
#121 = CARTESIAN_POINT ( 'NONE',  ( 1.745740669421566678E-14, 1.499759782661852955E-32, 5.000000000000000000 ) ) ;
#122 = CALENDAR_DATE ( 2023, 31, 3 ) ;
#123 = AXIS2_PLACEMENT_3D ( 'NONE', #104, #125, #246 ) ;
#124 = CARTESIAN_POINT ( 'NONE',  ( 1.391813937098032485E-13, -1.600000000000004086, 40.00000000000000000 ) ) ;
#125 = DIRECTION ( 'NONE',  ( -3.491481338843133355E-15, 1.224646799147353207E-16, -1.000000000000000000 ) ) ;
#126 = PERSON_AND_ORGANIZATION_ROLE ( 'classification_officer' ) ;
#127 = AXIS2_PLACEMENT_3D ( 'NONE', #230, #87, #180 ) ;
#128 = PERSON_AND_ORGANIZATION ( #55, #67 ) ;
#129 = CARTESIAN_POINT ( 'NONE',  ( 8.973632706937300529E-15, -1.999999999999994005, -6.123211549862218022E-16 ) ) ;
#130 = VECTOR ( 'NONE', #192, 1000.000000000000000 ) ;
#131 = FACE_OUTER_BOUND ( 'NONE', #39, .T. ) ;
#132 = ORIENTED_EDGE ( 'NONE', *, *, #216, .T. ) ;
#133 = CARTESIAN_POINT ( 'NONE',  ( 7.810496321603122421E-14, -2.000000000000003553, 39.60000000000000853 ) ) ;
#134 = CARTESIAN_POINT ( 'NONE',  ( 1.396592535537253342E-13, -4.898587196589413026E-15, 40.00000000000000000 ) ) ;
#135 = VERTEX_POINT ( 'NONE', #20 ) ;
#136 = APPROVAL ( #99, 'UNSPECIFIED' ) ;
#137 = EDGE_CURVE ( 'NONE', #231, #259, #47, .T. ) ;
#138 = APPROVAL_STATUS ( 'not_yet_approved' ) ;
#139 = CARTESIAN_POINT ( 'NONE',  ( 1.745740669421566678E-14, -6.123233995736766282E-16, 5.000000000000000000 ) ) ;
#140 = EDGE_LOOP ( 'NONE', ( #37, #89 ) ) ;
#141 = EDGE_CURVE ( 'NONE', #277, #302, #102, .T. ) ;
#142 = CLOSED_SHELL ( 'NONE', ( #177, #100, #173, #305 ) ) ;
#143 = CC_DESIGN_PERSON_AND_ORGANIZATION_ASSIGNMENT ( #76, #126, ( #114 ) ) ;
#144 = DIRECTION ( 'NONE',  ( 3.491481338843133355E-15, -1.224646799147353207E-16, 1.000000000000000000 ) ) ;
#145 = PLANE ( 'NONE',  #30 ) ;
#146 = DESIGN_CONTEXT ( 'detailed design', #73, 'design' ) ;
#147 = EDGE_CURVE ( 'NONE', #33, #135, #263, .T. ) ;
#148 = CC_DESIGN_SECURITY_CLASSIFICATION ( #114, ( #158 ) ) ;
#149 = ORIENTED_EDGE ( 'NONE', *, *, #279, .F. ) ;
#150 = CARTESIAN_POINT ( 'NONE',  ( 8.551662891793903200E-31, 1.999999999999996669, 2.449293598294702470E-16 ) ) ;
#151 = SECURITY_CLASSIFICATION_LEVEL ( 'unclassified' ) ;
#152 = CLOSED_SHELL ( 'NONE', ( #48, #278, #174, #83, #13, #26 ) ) ;
#153 = APPROVAL_DATE_TIME ( #219, #212 ) ;
#154 = CARTESIAN_POINT ( 'NONE',  ( 2.449293598294693595E-16, -1.999999999999996669, -2.449293598294710852E-16 ) ) ;
#155 = EDGE_CURVE ( 'NONE', #97, #259, #184, .T. ) ;
#156 = DIRECTION ( 'NONE',  ( -3.491481338843133355E-15, 1.224646799147353207E-16, -1.000000000000000000 ) ) ;
#157 = FACE_OUTER_BOUND ( 'NONE', #235, .T. ) ;
#158 = PRODUCT_DEFINITION_FORMATION_WITH_SPECIFIED_SOURCE ( 'ANY', '', #11, .NOT_KNOWN. ) ;
#159 = VERTEX_POINT ( 'NONE', #199 ) ;
#160 = ORIENTED_EDGE ( 'NONE', *, *, #109, .T. ) ;
#161 = EDGE_CURVE ( 'NONE', #181, #97, #182, .T. ) ;
#162 = CARTESIAN_POINT ( 'NONE',  ( -4.275753076543797008E-31, 1.999999999999994005, -1.224624353272506412E-16 ) ) ;
#163 = EDGE_LOOP ( 'NONE', ( #25, #160 ) ) ;
#164 = APPROVAL_ROLE ( '' ) ;
#165 = DIRECTION ( 'NONE',  ( -3.491481338843133355E-15, 1.224646799147353207E-16, -1.000000000000000000 ) ) ;
#166 = ORIENTED_EDGE ( 'NONE', *, *, #137, .T. ) ;
#167 = CIRCLE ( 'NONE', #303, 1.599999999999998979 ) ;
#168 = APPROVAL_DATE_TIME ( #189, #136 ) ;
#169 = ORIENTED_EDGE ( 'NONE', *, *, #141, .F. ) ;
#170 = DIRECTION ( 'NONE',  ( -2.468850131082236945E-15, 0.7071067811865556774, -0.7071067811865393571 ) ) ;
#171 = LOCAL_TIME ( 9, 8, 58.00000000000000000, #214 ) ;
#172 = DATE_TIME_ROLE ( 'classification_date' ) ;
#173 = ADVANCED_FACE ( 'NONE', ( #157 ), #110, .T. ) ;
#174 = ADVANCED_FACE ( 'NONE', ( #298 ), #84, .F. ) ;
#175 = CYLINDRICAL_SURFACE ( 'NONE', #42, 1.999999999999994005 ) ;
#176 = ORIENTED_EDGE ( 'NONE', *, *, #70, .T. ) ;
#177 = ADVANCED_FACE ( 'NONE', ( #131 ), #175, .T. ) ;
#178 = CARTESIAN_POINT ( 'NONE',  ( 0.000000000000000000, 0.000000000000000000, 0.000000000000000000 ) ) ;
#179 = CIRCLE ( 'NONE', #66, 1.999999999999994449 ) ;
#180 = DIRECTION ( 'NONE',  ( 0.000000000000000000, 1.000000000000000000, 0.000000000000000000 ) ) ;
#181 = VERTEX_POINT ( 'NONE', #297 ) ;
#182 = LINE ( 'NONE', #54, #307 ) ;
#183 = PERSON_AND_ORGANIZATION ( #55, #67 ) ;
#184 = CIRCLE ( 'NONE', #293, 1.999999999999994005 ) ;
#185 = AXIS2_PLACEMENT_3D ( 'NONE', #121, #144, #208 ) ;
#186 = APPROVAL_DATE_TIME ( #117, #223 ) ;
#187 = ORIENTED_EDGE ( 'NONE', *, *, #147, .T. ) ;
#188 = APPLICATION_PROTOCOL_DEFINITION ( 'international standard', 'config_control_design', 1994, #49 ) ;
#189 = DATE_AND_TIME ( #122, #310 ) ;
#190 = DATE_AND_TIME ( #267, #244 ) ;
#191 = EDGE_CURVE ( 'NONE', #33, #272, #106, .T. ) ;
#192 = DIRECTION ( 'NONE',  ( -3.491481338843133355E-15, 1.224646799147353207E-16, -1.000000000000000000 ) ) ;
#193 = AXIS2_PLACEMENT_3D ( 'NONE', #74, #78, #195 ) ;
#194 = CC_DESIGN_PERSON_AND_ORGANIZATION_ASSIGNMENT ( #79, #292, ( #158 ) ) ;
#195 = DIRECTION ( 'NONE',  ( -4.275831445896958607E-31, -1.000000000000000000, -1.224646799147353207E-16 ) ) ;
#196 = DIRECTION ( 'NONE',  ( 4.275831445896959482E-31, 1.000000000000000000, 1.224646799147353207E-16 ) ) ;
#197 = VECTOR ( 'NONE', #170, 1000.000000000000000 ) ;
#198 = DIRECTION ( 'NONE',  ( 0.000000000000000000, 1.000000000000000000, 0.000000000000000000 ) ) ;
#199 = CARTESIAN_POINT ( 'NONE',  ( 7.810496321603133781E-14, -1.999999999999994893, 5.000000000000000000 ) ) ;
#200 = ORIENTED_EDGE ( 'NONE', *, *, #207, .F. ) ;
#201 = DIRECTION ( 'NONE',  ( 4.275831445896959482E-31, 1.000000000000000000, 1.224646799147353207E-16 ) ) ;
#202 = PRODUCT_DEFINITION_SHAPE ( 'NONE', 'NONE',  #12 ) ;
#203 = FACE_OUTER_BOUND ( 'NONE', #16, .T. ) ;
#204 = ORIENTED_EDGE ( 'NONE', *, *, #137, .F. ) ;
#205 = ORIENTED_EDGE ( 'NONE', *, *, #191, .F. ) ;
#206 = ORIENTED_EDGE ( 'NONE', *, *, #147, .F. ) ;
#207 = EDGE_CURVE ( 'NONE', #302, #159, #93, .T. ) ;
#208 = DIRECTION ( 'NONE',  ( -4.275831445896958607E-31, -1.000000000000000000, -1.224646799147353207E-16 ) ) ;
#209 = DIRECTION ( 'NONE',  ( -3.491481338843133355E-15, 1.224646799147353207E-16, -1.000000000000000000 ) ) ;
#210 = DIRECTION ( 'NONE',  ( -3.491481338843133355E-15, 1.224646799147353207E-16, -1.000000000000000000 ) ) ;
#211 = MECHANICAL_CONTEXT ( 'NONE', #49, 'mechanical' ) ;
#212 = APPROVAL ( #21, 'UNSPECIFIED' ) ;
#213 = FACE_OUTER_BOUND ( 'NONE', #29, .T. ) ;
#214 = COORDINATED_UNIVERSAL_TIME_OFFSET ( 1, 0, .AHEAD. ) ;
#215 = CARTESIAN_POINT ( 'NONE',  ( 1.396592535537253342E-13, -4.898587196589413026E-15, 40.00000000000000000 ) ) ;
#216 = EDGE_CURVE ( 'NONE', #231, #181, #270, .T. ) ;
#217 = AXIS2_PLACEMENT_3D ( 'NONE', #31, #51, #198 ) ;
#218 = AXIS2_PLACEMENT_3D ( 'NONE', #10, #210, #284 ) ;
#219 = DATE_AND_TIME ( #237, #171 ) ;
#220 = PLANE ( 'NONE',  #193 ) ;
#221 = MANIFOLD_SOLID_BREP ( 'Corps-Déplacer/Copier1[1]', #152 ) ;
#222 = DIRECTION ( 'NONE',  ( -3.491481338843133355E-15, 1.224646799147353207E-16, -1.000000000000000000 ) ) ;
#223 = APPROVAL ( #138, 'UNSPECIFIED' ) ;
#224 = AXIS2_PLACEMENT_3D ( 'NONE', #115, #280, #227 ) ;
#225 = DIRECTION ( 'NONE',  ( 0.000000000000000000, 1.000000000000000000, 0.000000000000000000 ) ) ;
#226 = ORIENTED_EDGE ( 'NONE', *, *, #62, .T. ) ;
#227 = DIRECTION ( 'NONE',  ( -4.275831445896958607E-31, -1.000000000000000000, -1.224646799147353207E-16 ) ) ;
#228 = ORIENTED_EDGE ( 'NONE', *, *, #279, .T. ) ;
#229 = CONICAL_SURFACE ( 'NONE', #80, 1.599999999999998979, 0.7853981633974597143 ) ;
#230 = CARTESIAN_POINT ( 'NONE',  ( 1.745740669421566678E-14, -6.123233995736766282E-16, 5.000000000000000000 ) ) ;
#231 = VERTEX_POINT ( 'NONE', #251 ) ;
#232 = FACE_OUTER_BOUND ( 'NONE', #252, .T. ) ;
#233 = CALENDAR_DATE ( 2023, 31, 3 ) ;
#234 = PERSON_AND_ORGANIZATION ( #55, #67 ) ;
#235 = EDGE_LOOP ( 'NONE', ( #64, #226, #166, #294 ) ) ;
#236 = AXIS2_PLACEMENT_3D ( 'NONE', #103, #295, #269 ) ;
#237 = CALENDAR_DATE ( 2023, 31, 3 ) ;
#238 = DIRECTION ( 'NONE',  ( -3.491481338843133355E-15, 1.224646799147353207E-16, -1.000000000000000000 ) ) ;
#239 = DIRECTION ( 'NONE',  ( -3.491481338843133355E-15, 1.224646799147353207E-16, -1.000000000000000000 ) ) ;
#240 = EDGE_LOOP ( 'NONE', ( #268, #206 ) ) ;
#241 = APPROVAL_ROLE ( '' ) ;
#242 = AXIS2_PLACEMENT_3D ( 'NONE', #250, #28, #6 ) ;
#243 = LOCAL_TIME ( 9, 8, 58.00000000000000000, #301 ) ;
#244 = LOCAL_TIME ( 9, 8, 58.00000000000000000, #273 ) ;
#245 = CYLINDRICAL_SURFACE ( 'NONE', #123, 1.999999999999996669 ) ;
#246 = DIRECTION ( 'NONE',  ( 4.275831445896958607E-31, 1.000000000000000000, 1.224646799147353207E-16 ) ) ;
#247 = DIRECTION ( 'NONE',  ( -3.491481338843133355E-15, 1.224646799147353207E-16, -1.000000000000000000 ) ) ;
#248 = AXIS2_PLACEMENT_3D ( 'NONE', #88, #156, #112 ) ;
#249 = LOCAL_TIME ( 9, 8, 58.00000000000000000, #32 ) ;
#250 = CARTESIAN_POINT ( 'NONE',  ( 0.000000000000000000, 0.000000000000000000, 0.000000000000000000 ) ) ;
#251 = CARTESIAN_POINT ( 'NONE',  ( 1.745740669421566678E-14, 1.999999999999994005, 5.000000000000000000 ) ) ;
#252 = EDGE_LOOP ( 'NONE', ( #56, #9 ) ) ;
#253 = EDGE_CURVE ( 'NONE', #135, #33, #167, .T. ) ;
#254 = CONICAL_SURFACE ( 'NONE', #75, 1.599999999999998979, 0.7853981633974597143 ) ;
#255 = APPROVAL_PERSON_ORGANIZATION ( #309, #212, #241 ) ;
#256 = DIRECTION ( 'NONE',  ( -3.491481338843133355E-15, 1.224646799147353207E-16, -1.000000000000000000 ) ) ;
#257 = ORIENTED_EDGE ( 'NONE', *, *, #70, .F. ) ;
#258 = DATE_AND_TIME ( #90, #243 ) ;
#259 = VERTEX_POINT ( 'NONE', #162 ) ;
#260 = DIRECTION ( 'NONE',  ( 0.000000000000000000, 1.000000000000000000, 0.000000000000000000 ) ) ;
#261 = DIRECTION ( 'NONE',  ( -3.491481338843133355E-15, 1.224646799147353207E-16, -1.000000000000000000 ) ) ;
#262 =( NAMED_UNIT ( * ) SI_UNIT ( $, .STERADIAN. ) SOLID_ANGLE_UNIT ( ) );
#263 = CIRCLE ( 'NONE', #52, 1.599999999999998979 ) ;
#264 = APPLICATION_PROTOCOL_DEFINITION ( 'international standard', 'config_control_design', 1994, #73 ) ;
#265 = PERSON_AND_ORGANIZATION ( #55, #67 ) ;
#266 = DIRECTION ( 'NONE',  ( 0.000000000000000000, 1.000000000000000000, 0.000000000000000000 ) ) ;
#267 = CALENDAR_DATE ( 2023, 31, 3 ) ;
#268 = ORIENTED_EDGE ( 'NONE', *, *, #253, .F. ) ;
#269 = DIRECTION ( 'NONE',  ( 0.000000000000000000, 1.000000000000000000, 0.000000000000000000 ) ) ;
#270 = CIRCLE ( 'NONE', #127, 1.999999999999994449 ) ;
#271 = CIRCLE ( 'NONE', #218, 1.999999999999998668 ) ;
#272 = VERTEX_POINT ( 'NONE', #133 ) ;
#273 = COORDINATED_UNIVERSAL_TIME_OFFSET ( 1, 0, .AHEAD. ) ;
#274 = CARTESIAN_POINT ( 'NONE',  ( -1.282741596833768882E-30, 4.499251859716778976E-32, -3.673917951567205431E-16 ) ) ;
#275 = AXIS2_PLACEMENT_3D ( 'NONE', #274, #46, #196 ) ;
#276 = CARTESIAN_POINT ( 'NONE',  ( 1.745740669421566678E-14, 1.999999999999994005, 5.000000000000000000 ) ) ;
#277 = VERTEX_POINT ( 'NONE', #4 ) ;
#278 = ADVANCED_FACE ( 'NONE', ( #203 ), #2, .T. ) ;
#279 = EDGE_CURVE ( 'NONE', #277, #272, #101, .T. ) ;
#280 = DIRECTION ( 'NONE',  ( 3.491481338843133355E-15, -1.224646799147353207E-16, 1.000000000000000000 ) ) ;
#281 = DIRECTION ( 'NONE',  ( -3.491481338843133355E-15, 1.224646799147353207E-16, -1.000000000000000000 ) ) ;
#282 =( LENGTH_UNIT ( ) NAMED_UNIT ( * ) SI_UNIT ( .MILLI., .METRE. ) );
#283 = DIRECTION ( 'NONE',  ( 0.000000000000000000, 1.000000000000000000, 0.000000000000000000 ) ) ;
#284 = DIRECTION ( 'NONE',  ( 0.000000000000000000, 1.000000000000000000, 0.000000000000000000 ) ) ;
#285 = DIRECTION ( 'NONE',  ( 0.000000000000000000, 0.000000000000000000, 1.000000000000000000 ) ) ;
#286 = ORIENTED_EDGE ( 'NONE', *, *, #141, .T. ) ;
#287 = FACE_OUTER_BOUND ( 'NONE', #240, .T. ) ;
#288 =( NAMED_UNIT ( * ) PLANE_ANGLE_UNIT ( ) SI_UNIT ( $, .RADIAN. ) );
#289 = CARTESIAN_POINT ( 'NONE',  ( 1.396592535537253342E-13, -4.898587196589413026E-15, 40.00000000000000000 ) ) ;
#290 = LINE ( 'NONE', #154, #118 ) ;
#291 = UNCERTAINTY_MEASURE_WITH_UNIT (LENGTH_MEASURE( 1.000000000000000082E-05 ), #282, 'distance_accuracy_value', 'NONE');
#292 = PERSON_AND_ORGANIZATION_ROLE ( 'design_supplier' ) ;
#293 = AXIS2_PLACEMENT_3D ( 'NONE', #24, #222, #201 ) ;
#294 = ORIENTED_EDGE ( 'NONE', *, *, #155, .F. ) ;
#295 = DIRECTION ( 'NONE',  ( -3.491481338843133355E-15, 1.224646799147353207E-16, -1.000000000000000000 ) ) ;
#296 = CC_DESIGN_APPROVAL ( #136, ( #12 ) ) ;
#297 = CARTESIAN_POINT ( 'NONE',  ( 8.973632706937297374E-15, -1.999999999999994893, 5.000000000000000000 ) ) ;
#298 = FACE_OUTER_BOUND ( 'NONE', #163, .T. ) ;
#299 = ORIENTED_EDGE ( 'NONE', *, *, #111, .F. ) ;
#300 = CARTESIAN_POINT ( 'NONE',  ( 1.398551970415888953E-13, -1.600000000000004086, 40.00000000000000000 ) ) ;
#301 = COORDINATED_UNIVERSAL_TIME_OFFSET ( 1, 0, .AHEAD. ) ;
#302 = VERTEX_POINT ( 'NONE', #276 ) ;
#303 = AXIS2_PLACEMENT_3D ( 'NONE', #134, #57, #225 ) ;
#304 = CARTESIAN_POINT ( 'NONE',  ( 1.396592535537253342E-13, 1.599999999999994094, 40.00000000000000000 ) ) ;
#305 = ADVANCED_FACE ( 'NONE', ( #232 ), #120, .T. ) ;
#306 = EDGE_LOOP ( 'NONE', ( #205, #187, #176, #15 ) ) ;
#307 = VECTOR ( 'NONE', #281, 1000.000000000000000 ) ;
#308 = DIRECTION ( 'NONE',  ( 1.000000000000000000, 0.000000000000000000, 0.000000000000000000 ) ) ;
#309 = PERSON_AND_ORGANIZATION ( #55, #67 ) ;
#310 = LOCAL_TIME ( 9, 8, 58.00000000000000000, #14 ) ;
#311 = EDGE_CURVE ( 'NONE', #272, #277, #271, .T. ) ;
#312 = FACE_OUTER_BOUND ( 'NONE', #140, .T. ) ;
#313 = ADVANCED_BREP_SHAPE_REPRESENTATION ( '372733', ( #221, #105, #77 ), #5 ) ;
ENDSEC;
END-ISO-10303-21;
