ISO-10303-21;
HEADER;
FILE_DESCRIPTION (( 'STEP AP203' ),
    '1' );
FILE_NAME ('372732.step',
    '2023-03-31T07:08:57',
    ( '' ),
    ( '' ),
    'SwSTEP 2.0',
    'SolidWorks 2022',
    '' );
FILE_SCHEMA (( 'CONFIG_CONTROL_DESIGN' ));
ENDSEC;

DATA;
#1 = DIRECTION ( 'NONE',  ( 3.491481338843133355E-15, -1.276467311168695266E-16, 1.000000000000000000 ) ) ;
#2 = CONICAL_SURFACE ( 'NONE', #132, 2.400000000000001688, 0.7853981633974453924 ) ;
#3 = DIRECTION ( 'NONE',  ( 3.491481338843133355E-15, -1.224646799147353207E-16, 1.000000000000000000 ) ) ;
#4 = VERTEX_POINT ( 'NONE', #117 ) ;
#5 = ADVANCED_FACE ( 'NONE', ( #228 ), #32, .T. ) ;
#6 = PERSON_AND_ORGANIZATION ( #114, #260 ) ;
#7 = DIRECTION ( 'NONE',  ( 0.000000000000000000, 1.000000000000000000, 0.000000000000000000 ) ) ;
#8 = CIRCLE ( 'NONE', #16, 1.499999999999998890 ) ;
#9 = CARTESIAN_POINT ( 'NONE',  ( 1.836970198721028948E-16, 1.499999999999999112, 7.770426314659498485E-18 ) ) ;
#10 = ORIENTED_EDGE ( 'NONE', *, *, #55, .T. ) ;
#11 = FACE_OUTER_BOUND ( 'NONE', #354, .T. ) ;
#12 = ORIENTED_EDGE ( 'NONE', *, *, #93, .T. ) ;
#13 = DIRECTION ( 'NONE',  ( -3.491481338843133355E-15, 1.224646799147353207E-16, -1.000000000000000000 ) ) ;
#14 = VECTOR ( 'NONE', #203, 1000.000000000000000 ) ;
#15 = EDGE_CURVE ( 'NONE', #312, #304, #87, .T. ) ;
#16 = AXIS2_PLACEMENT_3D ( 'NONE', #355, #197, #17 ) ;
#17 = DIRECTION ( 'NONE',  ( 0.000000000000000000, -1.000000000000000000, 0.000000000000000000 ) ) ;
#18 = CARTESIAN_POINT ( 'NONE',  ( 3.673940397442046063E-16, -2.999999999999999112, -3.673940397442071208E-16 ) ) ;
#19 = ADVANCED_FACE ( 'NONE', ( #336 ), #181, .T. ) ;
#20 = ORIENTED_EDGE ( 'NONE', *, *, #271, .T. ) ;
#21 = VERTEX_POINT ( 'NONE', #84 ) ;
#22 = CONICAL_SURFACE ( 'NONE', #85, 6.500000000000000000, 0.2617993877991501850 ) ;
#23 = PERSON_AND_ORGANIZATION ( #114, #260 ) ;
#24 = SECURITY_CLASSIFICATION ( '', '', #273 ) ;
#25 = ORIENTED_EDGE ( 'NONE', *, *, #247, .F. ) ;
#26 = EDGE_CURVE ( 'NONE', #4, #333, #195, .T. ) ;
#27 = CALENDAR_DATE ( 2023, 31, 3 ) ;
#28 = DIRECTION ( 'NONE',  ( 3.372511997194914833E-15, -0.2588190451025215166, 0.9659258262890679791 ) ) ;
#29 = MANIFOLD_SOLID_BREP ( 'Corps-Déplacer/Copier1[2]', #116 ) ;
#30 = APPROVAL_STATUS ( 'not_yet_approved' ) ;
#31 = AXIS2_PLACEMENT_3D ( 'NONE', #187, #128, #45 ) ;
#32 = CYLINDRICAL_SURFACE ( 'NONE', #151, 2.999999999999999112 ) ;
#33 = VECTOR ( 'NONE', #71, 1000.000000000000000 ) ;
#34 = EDGE_CURVE ( 'NONE', #333, #21, #60, .T. ) ;
#35 = PLANE ( 'NONE',  #61 ) ;
#36 = AXIS2_PLACEMENT_3D ( 'NONE', #47, #168, #357 ) ;
#37 = EDGE_LOOP ( 'NONE', ( #281, #169, #80, #275 ) ) ;
#38 = EDGE_CURVE ( 'NONE', #43, #48, #313, .T. ) ;
#39 = CC_DESIGN_APPROVAL ( #96, ( #24 ) ) ;
#40 = PLANE ( 'NONE',  #259 ) ;
#41 = APPROVAL_DATE_TIME ( #362, #124 ) ;
#42 = CARTESIAN_POINT ( 'NONE',  ( 1.745740669421566678E-13, -6.123233995736766085E-15, 50.00000000000000000 ) ) ;
#43 = VERTEX_POINT ( 'NONE', #184 ) ;
#44 = VECTOR ( 'NONE', #347, 1000.000000000000114 ) ;
#45 = DIRECTION ( 'NONE',  ( 0.000000000000000000, -1.000000000000000000, 0.000000000000000000 ) ) ;
#46 = VERTEX_POINT ( 'NONE', #235 ) ;
#47 = CARTESIAN_POINT ( 'NONE',  ( -2.699534206289369255E-30, 7.524489584330195340E-32, -7.731773262702965640E-16 ) ) ;
#48 = VERTEX_POINT ( 'NONE', #64 ) ;
#49 = ADVANCED_FACE ( 'NONE', ( #299 ), #40, .F. ) ;
#50 = ORIENTED_EDGE ( 'NONE', *, *, #34, .F. ) ;
#51 = VECTOR ( 'NONE', #327, 1000.000000000000000 ) ;
#52 = CC_DESIGN_APPROVAL ( #124, ( #236 ) ) ;
#53 = EDGE_LOOP ( 'NONE', ( #50, #291, #286, #246 ) ) ;
#54 = VERTEX_POINT ( 'NONE', #300 ) ;
#55 = EDGE_CURVE ( 'NONE', #312, #43, #154, .T. ) ;
#56 = ORIENTED_EDGE ( 'NONE', *, *, #135, .F. ) ;
#57 = AXIS2_PLACEMENT_3D ( 'NONE', #248, #165, #110 ) ;
#58 = PERSON_AND_ORGANIZATION_ROLE ( 'creator' ) ;
#59 = PERSON_AND_ORGANIZATION ( #114, #260 ) ;
#60 = LINE ( 'NONE', #62, #14 ) ;
#61 = AXIS2_PLACEMENT_3D ( 'NONE', #101, #3, #134 ) ;
#62 = CARTESIAN_POINT ( 'NONE',  ( 1.748679821739520473E-13, -2.400000000000007461, 50.00000000000000000 ) ) ;
#63 = APPROVAL_STATUS ( 'not_yet_approved' ) ;
#64 = CARTESIAN_POINT ( 'NONE',  ( 1.138371791160661343E-13, -3.000000000000001776, 15.59807621135329647 ) ) ;
#65 = CARTESIAN_POINT ( 'NONE',  ( 1.282749433769087232E-30, 2.999999999999999112, 3.673940397442058882E-16 ) ) ;
#66 = DIRECTION ( 'NONE',  ( 3.491481338843133355E-15, -1.276467311168695266E-16, 1.000000000000000000 ) ) ;
#67 = DIRECTION ( 'NONE',  ( 4.275831445896958607E-31, 1.000000000000000000, 1.224646799147353207E-16 ) ) ;
#68 = EDGE_LOOP ( 'NONE', ( #240, #12, #104, #253 ) ) ;
#69 = DIRECTION ( 'NONE',  ( -3.491481338843133355E-15, 1.224646799147353207E-16, -1.000000000000000000 ) ) ;
#70 = APPROVAL_PERSON_ORGANIZATION ( #59, #124, #231 ) ;
#71 = DIRECTION ( 'NONE',  ( -3.491481338843133355E-15, 1.224646799147353207E-16, -1.000000000000000000 ) ) ;
#72 = EDGE_LOOP ( 'NONE', ( #163, #196, #191, #146 ) ) ;
#73 = CARTESIAN_POINT ( 'NONE',  ( 3.491481338843133355E-14, -1.500000000000000222, 10.00000000000000000 ) ) ;
#74 = ORIENTED_EDGE ( 'NONE', *, *, #26, .F. ) ;
#75 = VECTOR ( 'NONE', #28, 1000.000000000000114 ) ;
#76 = AXIS2_PLACEMENT_3D ( 'NONE', #328, #309, #305 ) ;
#77 = CLOSED_SHELL ( 'NONE', ( #174, #89, #166, #5, #234, #118, #346, #49 ) ) ;
#78 = APPROVAL_PERSON_ORGANIZATION ( #217, #96, #269 ) ;
#79 = CARTESIAN_POINT ( 'NONE',  ( -3.368048475777684354E-30, -1.499999999999999556, -9.646474229456007799E-16 ) ) ;
#80 = ORIENTED_EDGE ( 'NONE', *, *, #264, .F. ) ;
#81 = APPROVAL ( #30, 'UNSPECIFIED' ) ;
#82 =( LENGTH_UNIT ( ) NAMED_UNIT ( * ) SI_UNIT ( .MILLI., .METRE. ) );
#83 = DATE_AND_TIME ( #27, #302 ) ;
#84 = CARTESIAN_POINT ( 'NONE',  ( 1.138371791160660333E-13, -3.000000000000007994, 49.39999999999999858 ) ) ;
#85 = AXIS2_PLACEMENT_3D ( 'NONE', #353, #175, #284 ) ;
#86 = APPROVAL_DATE_TIME ( #83, #81 ) ;
#87 = LINE ( 'NONE', #296, #245 ) ;
#88 = APPROVAL_STATUS ( 'not_yet_approved' ) ;
#89 = ADVANCED_FACE ( 'NONE', ( #126 ), #2, .T. ) ;
#90 = CARTESIAN_POINT ( 'NONE',  ( 0.000000000000000000, 0.000000000000000000, 0.000000000000000000 ) ) ;
#91 = APPLICATION_CONTEXT ( 'configuration controlled 3d designs of mechanical parts and assemblies' ) ;
#92 = APPROVAL_PERSON_ORGANIZATION ( #148, #81, #149 ) ;
#93 = EDGE_CURVE ( 'NONE', #170, #54, #239, .T. ) ;
#94 = COORDINATED_UNIVERSAL_TIME_OFFSET ( 1, 0, .AHEAD. ) ;
#95 = DIRECTION ( 'NONE',  ( 3.491481338843133355E-15, -1.224646799147353207E-16, 1.000000000000000000 ) ) ;
#96 = APPROVAL ( #63, 'UNSPECIFIED' ) ;
#97 = PERSON_AND_ORGANIZATION_ROLE ( 'design_supplier' ) ;
#98 = CARTESIAN_POINT ( 'NONE',  ( -1.309898240504139063E-30, -1.499999999999999112, -3.751697670359482168E-16 ) ) ;
#99 = CARTESIAN_POINT ( 'NONE',  ( 1.745740669421566678E-13, 1.799711739194221466E-32, 50.00000000000000000 ) ) ;
#100 = PERSON_AND_ORGANIZATION ( #114, #260 ) ;
#101 = CARTESIAN_POINT ( 'NONE',  ( -4.275870630573529334E-31, 1.499773526796246868E-32, -1.224658022084773770E-16 ) ) ;
#102 = EDGE_CURVE ( 'NONE', #43, #312, #194, .T. ) ;
#103 = PLANE ( 'NONE',  #283 ) ;
#104 = ORIENTED_EDGE ( 'NONE', *, *, #271, .F. ) ;
#105 = CYLINDRICAL_SURFACE ( 'NONE', #173, 1.499999999999999112 ) ;
#106 = ORIENTED_EDGE ( 'NONE', *, *, #254, .T. ) ;
#107 = CONICAL_SURFACE ( 'NONE', #350, 2.400000000000001688, 0.7853981633974453924 ) ;
#108 = DIRECTION ( 'NONE',  ( 0.000000000000000000, 1.000000000000000000, 0.000000000000000000 ) ) ;
#109 = ORIENTED_EDGE ( 'NONE', *, *, #102, .T. ) ;
#110 = DIRECTION ( 'NONE',  ( 0.000000000000000000, -1.000000000000000000, 0.000000000000000000 ) ) ;
#111 = ORIENTED_EDGE ( 'NONE', *, *, #172, .T. ) ;
#112 = AXIS2_PLACEMENT_3D ( 'NONE', #276, #285, #307 ) ;
#113 = CARTESIAN_POINT ( 'NONE',  ( 1.724791781388508004E-13, -6.049755187787925154E-15, 49.39999999999999858 ) ) ;
#114 = PERSON ( 'UNSPECIFIED', 'UNSPECIFIED', 'UNSPECIFIED', ('UNSPECIFIED'), ('UNSPECIFIED'), ('UNSPECIFIED') ) ;
#115 = ADVANCED_FACE ( 'NONE', ( #341 ), #35, .F. ) ;
#116 = CLOSED_SHELL ( 'NONE', ( #19, #162, #250, #115 ) ) ;
#117 = CARTESIAN_POINT ( 'NONE',  ( 1.745740669421566678E-13, 2.399999999999995470, 50.00000000000000000 ) ) ;
#118 = ADVANCED_FACE ( 'NONE', ( #343 ), #103, .F. ) ;
#119 = DIRECTION ( 'NONE',  ( 4.275831445896958607E-31, 1.000000000000000000, 1.224646799147353207E-16 ) ) ;
#120 = DIRECTION ( 'NONE',  ( 1.000000000000000000, 0.000000000000000000, 0.000000000000000000 ) ) ;
#121 = CARTESIAN_POINT ( 'NONE',  ( 0.000000000000000000, 0.000000000000000000, 0.000000000000000000 ) ) ;
#122 = PRODUCT ( '372732', '372732', '', ( #207 ) ) ;
#123 = CARTESIAN_POINT ( 'NONE',  ( 3.491481338843133355E-14, 2.249639673992782033E-32, 10.00000000000000000 ) ) ;
#124 = APPROVAL ( #88, 'UNSPECIFIED' ) ;
#125 = DATE_TIME_ROLE ( 'classification_date' ) ;
#126 = FACE_OUTER_BOUND ( 'NONE', #37, .T. ) ;
#127 = CALENDAR_DATE ( 2023, 31, 3 ) ;
#128 = DIRECTION ( 'NONE',  ( 3.491481338843133355E-15, -1.276467311168695266E-16, 1.000000000000000000 ) ) ;
#129 = CC_DESIGN_PERSON_AND_ORGANIZATION_ASSIGNMENT ( #23, #58, ( #206 ) ) ;
#130 = CALENDAR_DATE ( 2023, 31, 3 ) ;
#131 = CARTESIAN_POINT ( 'NONE',  ( 1.745740669421566678E-13, -6.123233995736766085E-15, 50.00000000000000000 ) ) ;
#132 = AXIS2_PLACEMENT_3D ( 'NONE', #42, #218, #7 ) ;
#133 = AXIS2_PLACEMENT_3D ( 'NONE', #339, #289, #268 ) ;
#134 = DIRECTION ( 'NONE',  ( -4.275831445896958607E-31, -1.000000000000000000, -1.224646799147353207E-16 ) ) ;
#135 = EDGE_CURVE ( 'NONE', #333, #4, #202, .T. ) ;
#136 = ORIENTED_EDGE ( 'NONE', *, *, #257, .F. ) ;
#137 = DIRECTION ( 'NONE',  ( 0.000000000000000000, 1.000000000000000000, 0.000000000000000000 ) ) ;
#138 = CIRCLE ( 'NONE', #243, 3.000000000000001332 ) ;
#139 = EDGE_CURVE ( 'NONE', #352, #216, #244, .T. ) ;
#140 = CARTESIAN_POINT ( 'NONE',  ( 1.134697850763219541E-13, 2.999999999999996891, 15.59807621135329647 ) ) ;
#141 = FACE_OUTER_BOUND ( 'NONE', #53, .T. ) ;
#142 = FACE_OUTER_BOUND ( 'NONE', #212, .T. ) ;
#143 = EDGE_CURVE ( 'NONE', #46, #304, #193, .T. ) ;
#144 = CC_DESIGN_APPROVAL ( #81, ( #206 ) ) ;
#145 = DIRECTION ( 'NONE',  ( 0.000000000000000000, 0.000000000000000000, 1.000000000000000000 ) ) ;
#146 = ORIENTED_EDGE ( 'NONE', *, *, #172, .F. ) ;
#147 = DIRECTION ( 'NONE',  ( -3.491481338843133355E-15, 1.224646799147353207E-16, -1.000000000000000000 ) ) ;
#148 = PERSON_AND_ORGANIZATION ( #114, #260 ) ;
#149 = APPROVAL_ROLE ( '' ) ;
#150 = CC_DESIGN_SECURITY_CLASSIFICATION ( #24, ( #236 ) ) ;
#151 = AXIS2_PLACEMENT_3D ( 'NONE', #121, #318, #119 ) ;
#152 = DIRECTION ( 'NONE',  ( 3.404208188709233130E-15, 0.2588190451025213501, 0.9659258262890680902 ) ) ;
#153 =( NAMED_UNIT ( * ) SI_UNIT ( $, .STERADIAN. ) SOLID_ANGLE_UNIT ( ) );
#154 = CIRCLE ( 'NONE', #349, 1.499999999999998890 ) ;
#155 = CIRCLE ( 'NONE', #229, 2.999999999999999112 ) ;
#156 = CARTESIAN_POINT ( 'NONE',  ( 3.491481338843133355E-14, -1.276467311168695364E-15, 10.00000000000000000 ) ) ;
#157 = LOCAL_TIME ( 9, 8, 57.00000000000000000, #94 ) ;
#158 = ORIENTED_EDGE ( 'NONE', *, *, #264, .T. ) ;
#159 = DIRECTION ( 'NONE',  ( 3.491481338843133355E-15, -1.224646799147353207E-16, 1.000000000000000000 ) ) ;
#160 = DATE_AND_TIME ( #127, #230 ) ;
#161 = CARTESIAN_POINT ( 'NONE',  ( 1.764110371408778212E-14, 1.499999999999999556, -5.817072295950539779E-16 ) ) ;
#162 = ADVANCED_FACE ( 'NONE', ( #303 ), #270, .T. ) ;
#163 = ORIENTED_EDGE ( 'NONE', *, *, #192, .F. ) ;
#164 = MANIFOLD_SOLID_BREP ( 'Corps-Déplacer/Copier1[1]', #77 ) ;
#165 = DIRECTION ( 'NONE',  ( 3.491481338843133355E-15, -1.276467311168695266E-16, 1.000000000000000000 ) ) ;
#166 = ADVANCED_FACE ( 'NONE', ( #345 ), #321, .T. ) ;
#167 = CC_DESIGN_DATE_AND_TIME_ASSIGNMENT ( #160, #125, ( #24 ) ) ;
#168 = DIRECTION ( 'NONE',  ( 3.491481338843133355E-15, -1.276467311168695266E-16, 1.000000000000000000 ) ) ;
#169 = ORIENTED_EDGE ( 'NONE', *, *, #34, .T. ) ;
#170 = VERTEX_POINT ( 'NONE', #161 ) ;
#171 = CARTESIAN_POINT ( 'NONE',  ( 5.446039201379303834E-14, -1.991043440091053361E-15, 15.59807621135329647 ) ) ;
#172 = EDGE_CURVE ( 'NONE', #48, #304, #179, .T. ) ;
#173 = AXIS2_PLACEMENT_3D ( 'NONE', #219, #222, #220 ) ;
#174 = ADVANCED_FACE ( 'NONE', ( #11 ), #319, .T. ) ;
#175 = DIRECTION ( 'NONE',  ( 3.491481338843133355E-15, -1.276467311168695266E-16, 1.000000000000000000 ) ) ;
#176 = EDGE_LOOP ( 'NONE', ( #344, #335 ) ) ;
#177 = CC_DESIGN_PERSON_AND_ORGANIZATION_ASSIGNMENT ( #6, #210, ( #236 ) ) ;
#178 = PERSON_AND_ORGANIZATION_ROLE ( 'design_owner' ) ;
#179 = CIRCLE ( 'NONE', #112, 2.999999999999999112 ) ;
#180 = COORDINATED_UNIVERSAL_TIME_OFFSET ( 1, 0, .AHEAD. ) ;
#181 = CYLINDRICAL_SURFACE ( 'NONE', #133, 1.499999999999999112 ) ;
#182 = COORDINATED_UNIVERSAL_TIME_OFFSET ( 1, 0, .AHEAD. ) ;
#183 = AXIS2_PLACEMENT_3D ( 'NONE', #188, #325, #67 ) ;
#184 = CARTESIAN_POINT ( 'NONE',  ( 3.491481338843133355E-14, -1.500000000000000222, 10.00000000000000000 ) ) ;
#185 = DATE_AND_TIME ( #130, #157 ) ;
#186 = COORDINATED_UNIVERSAL_TIME_OFFSET ( 1, 0, .AHEAD. ) ;
#187 = CARTESIAN_POINT ( 'NONE',  ( 3.491481338843133355E-14, -1.276467311168695364E-15, 10.00000000000000000 ) ) ;
#188 = CARTESIAN_POINT ( 'NONE',  ( 0.000000000000000000, 0.000000000000000000, 0.000000000000000000 ) ) ;
#189 = EDGE_CURVE ( 'NONE', #21, #46, #272, .T. ) ;
#190 = EDGE_LOOP ( 'NONE', ( #329, #10, #308, #111 ) ) ;
#191 = ORIENTED_EDGE ( 'NONE', *, *, #143, .T. ) ;
#192 = EDGE_CURVE ( 'NONE', #21, #48, #223, .T. ) ;
#193 = LINE ( 'NONE', #65, #265 ) ;
#194 = CIRCLE ( 'NONE', #31, 1.499999999999998890 ) ;
#195 = CIRCLE ( 'NONE', #315, 2.400000000000001688 ) ;
#196 = ORIENTED_EDGE ( 'NONE', *, *, #189, .T. ) ;
#197 = DIRECTION ( 'NONE',  ( 3.491481338843133355E-15, -1.276467311168695266E-16, 1.000000000000000000 ) ) ;
#198 = ORIENTED_EDGE ( 'NONE', *, *, #38, .F. ) ;
#199 = DIRECTION ( 'NONE',  ( -3.491481338843133355E-15, 1.276467311168695266E-16, -1.000000000000000000 ) ) ;
#200 = ORIENTED_EDGE ( 'NONE', *, *, #143, .F. ) ;
#201 = DIRECTION ( 'NONE',  ( -1.953992523340275196E-14, -1.000000000000000000, 0.000000000000000000 ) ) ;
#202 = CIRCLE ( 'NONE', #204, 2.400000000000001688 ) ;
#203 = DIRECTION ( 'NONE',  ( -2.382254525458723780E-15, -0.7071067811865453523, -0.7071067811865496822 ) ) ;
#204 = AXIS2_PLACEMENT_3D ( 'NONE', #131, #297, #241 ) ;
#205 = DATE_TIME_ROLE ( 'creation_date' ) ;
#206 = PRODUCT_DEFINITION ( 'UNKNOWN', '', #236, #337 ) ;
#207 = MECHANICAL_CONTEXT ( 'NONE', #91, 'mechanical' ) ;
#208 = CC_DESIGN_PERSON_AND_ORGANIZATION_ASSIGNMENT ( #100, #97, ( #236 ) ) ;
#209 = UNCERTAINTY_MEASURE_WITH_UNIT (LENGTH_MEASURE( 1.000000000000000082E-05 ), #82, 'distance_accuracy_value', 'NONE');
#210 = PERSON_AND_ORGANIZATION_ROLE ( 'creator' ) ;
#211 = DIRECTION ( 'NONE',  ( -4.275831445896958607E-31, -1.000000000000000000, -1.224646799147353207E-16 ) ) ;
#212 = EDGE_LOOP ( 'NONE', ( #294, #106, #224, #25 ) ) ;
#213 = DIRECTION ( 'NONE',  ( -3.491481338843133355E-15, 1.224646799147353207E-16, -1.000000000000000000 ) ) ;
#214 = AXIS2_PLACEMENT_3D ( 'NONE', #123, #95, #211 ) ;
#215 = DIRECTION ( 'NONE',  ( 4.275831445896958607E-31, 1.000000000000000000, 1.224646799147353207E-16 ) ) ;
#216 = VERTEX_POINT ( 'NONE', #73 ) ;
#217 = PERSON_AND_ORGANIZATION ( #114, #260 ) ;
#218 = DIRECTION ( 'NONE',  ( -3.491481338843133355E-15, 1.224646799147353207E-16, -1.000000000000000000 ) ) ;
#219 = CARTESIAN_POINT ( 'NONE',  ( -6.413839710158237013E-31, 0.000000000000000000, -1.836996703606440502E-16 ) ) ;
#220 = DIRECTION ( 'NONE',  ( -4.456761796588771413E-31, -1.000000000000000000, -1.276467311168695019E-16 ) ) ;
#221 = CARTESIAN_POINT ( 'NONE',  ( 1.738572771762734887E-13, -2.400000000000007461, 50.00000000000000000 ) ) ;
#222 = DIRECTION ( 'NONE',  ( 3.491481338843133355E-15, -1.276467311168695266E-16, 1.000000000000000000 ) ) ;
#223 = LINE ( 'NONE', #18, #33 ) ;
#224 = ORIENTED_EDGE ( 'NONE', *, *, #139, .T. ) ;
#225 = APPLICATION_PROTOCOL_DEFINITION ( 'international standard', 'config_control_design', 1994, #91 ) ;
#226 = CC_DESIGN_PERSON_AND_ORGANIZATION_ASSIGNMENT ( #342, #237, ( #24 ) ) ;
#227 = COORDINATED_UNIVERSAL_TIME_OFFSET ( 1, 0, .AHEAD. ) ;
#228 = FACE_OUTER_BOUND ( 'NONE', #72, .T. ) ;
#229 = AXIS2_PLACEMENT_3D ( 'NONE', #171, #199, #201 ) ;
#230 = LOCAL_TIME ( 9, 8, 57.00000000000000000, #186 ) ;
#231 = APPROVAL_ROLE ( '' ) ;
#232 = EDGE_CURVE ( 'NONE', #4, #46, #330, .T. ) ;
#233 = DIRECTION ( 'NONE',  ( 0.000000000000000000, 1.000000000000000000, 0.000000000000000000 ) ) ;
#234 = ADVANCED_FACE ( 'NONE', ( #141 ), #107, .T. ) ;
#235 = CARTESIAN_POINT ( 'NONE',  ( 1.724791781388508004E-13, 2.999999999999995115, 49.39999999999999858 ) ) ;
#236 = PRODUCT_DEFINITION_FORMATION_WITH_SPECIFIED_SOURCE ( 'ANY', '', #122, .NOT_KNOWN. ) ;
#237 = PERSON_AND_ORGANIZATION_ROLE ( 'classification_officer' ) ;
#238 = DIRECTION ( 'NONE',  ( 0.000000000000000000, -1.000000000000000000, 0.000000000000000000 ) ) ;
#239 = LINE ( 'NONE', #9, #338 ) ;
#240 = ORIENTED_EDGE ( 'NONE', *, *, #257, .T. ) ;
#241 = DIRECTION ( 'NONE',  ( 0.000000000000000000, 1.000000000000000000, 0.000000000000000000 ) ) ;
#242 = AXIS2_PLACEMENT_3D ( 'NONE', #256, #251, #332 ) ;
#243 = AXIS2_PLACEMENT_3D ( 'NONE', #113, #13, #137 ) ;
#244 = LINE ( 'NONE', #98, #51 ) ;
#245 = VECTOR ( 'NONE', #152, 1000.000000000000000 ) ;
#246 = ORIENTED_EDGE ( 'NONE', *, *, #189, .F. ) ;
#247 = EDGE_CURVE ( 'NONE', #54, #216, #8, .T. ) ;
#248 = CARTESIAN_POINT ( 'NONE',  ( 1.000667421396370414E-13, -3.658387740909889804E-15, 28.66025403784433223 ) ) ;
#249 = EDGE_LOOP ( 'NONE', ( #158, #306, #322, #200 ) ) ;
#250 = ADVANCED_FACE ( 'NONE', ( #142 ), #105, .T. ) ;
#251 = DIRECTION ( 'NONE',  ( 3.491481338843133355E-15, -1.276467311168695266E-16, 1.000000000000000000 ) ) ;
#252 = LOCAL_TIME ( 9, 8, 57.00000000000000000, #182 ) ;
#253 = ORIENTED_EDGE ( 'NONE', *, *, #139, .F. ) ;
#254 = EDGE_CURVE ( 'NONE', #170, #352, #298, .T. ) ;
#255 = FACE_OUTER_BOUND ( 'NONE', #190, .T. ) ;
#256 = CARTESIAN_POINT ( 'NONE',  ( 3.491481338843133355E-14, -1.276467311168695364E-15, 10.00000000000000000 ) ) ;
#257 = EDGE_CURVE ( 'NONE', #352, #170, #314, .T. ) ;
#258 = CARTESIAN_POINT ( 'NONE',  ( 1.745740669421566678E-13, 2.399999999999995470, 50.00000000000000000 ) ) ;
#259 = AXIS2_PLACEMENT_3D ( 'NONE', #278, #159, #274 ) ;
#260 = ORGANIZATION ( 'UNSPECIFIED', 'UNSPECIFIED', '' ) ;
#261 = PERSON_AND_ORGANIZATION ( #114, #260 ) ;
#262 = ORIENTED_EDGE ( 'NONE', *, *, #247, .T. ) ;
#263 = EDGE_LOOP ( 'NONE', ( #74, #56 ) ) ;
#264 = EDGE_CURVE ( 'NONE', #46, #21, #138, .T. ) ;
#265 = VECTOR ( 'NONE', #213, 1000.000000000000000 ) ;
#266 = ADVANCED_BREP_SHAPE_REPRESENTATION ( '372732', ( #164, #29, #356 ), #287 ) ;
#267 = CALENDAR_DATE ( 2023, 31, 3 ) ;
#268 = DIRECTION ( 'NONE',  ( -4.456761796588771413E-31, -1.000000000000000000, -1.276467311168695019E-16 ) ) ;
#269 = APPROVAL_ROLE ( '' ) ;
#270 = PLANE ( 'NONE',  #214 ) ;
#271 = EDGE_CURVE ( 'NONE', #216, #54, #360, .T. ) ;
#272 = CIRCLE ( 'NONE', #310, 3.000000000000001332 ) ;
#273 = SECURITY_CLASSIFICATION_LEVEL ( 'unclassified' ) ;
#274 = DIRECTION ( 'NONE',  ( -4.275831445896958607E-31, -1.000000000000000000, -1.224646799147353207E-16 ) ) ;
#275 = ORIENTED_EDGE ( 'NONE', *, *, #232, .F. ) ;
#276 = CARTESIAN_POINT ( 'NONE',  ( 5.446039201379303834E-14, -1.991043440091053361E-15, 15.59807621135329647 ) ) ;
#277 = ORIENTED_EDGE ( 'NONE', *, *, #254, .F. ) ;
#278 = CARTESIAN_POINT ( 'NONE',  ( 3.491481338843133355E-14, 2.249639673992782033E-32, 10.00000000000000000 ) ) ;
#279 = EDGE_LOOP ( 'NONE', ( #20, #262 ) ) ;
#280 = CARTESIAN_POINT ( 'NONE',  ( 1.745740669421566678E-13, -6.123233995736766085E-15, 50.00000000000000000 ) ) ;
#281 = ORIENTED_EDGE ( 'NONE', *, *, #26, .T. ) ;
#282 = DIRECTION ( 'NONE',  ( 0.000000000000000000, 1.000000000000000000, 0.000000000000000000 ) ) ;
#283 = AXIS2_PLACEMENT_3D ( 'NONE', #99, #69, #215 ) ;
#284 = DIRECTION ( 'NONE',  ( 0.000000000000000000, -1.000000000000000000, 0.000000000000000000 ) ) ;
#285 = DIRECTION ( 'NONE',  ( -3.491481338843133355E-15, 1.276467311168695266E-16, -1.000000000000000000 ) ) ;
#286 = ORIENTED_EDGE ( 'NONE', *, *, #232, .T. ) ;
#287 =( GEOMETRIC_REPRESENTATION_CONTEXT ( 3 ) GLOBAL_UNCERTAINTY_ASSIGNED_CONTEXT ( ( #209 ) ) GLOBAL_UNIT_ASSIGNED_CONTEXT ( ( #82, #317, #153 ) ) REPRESENTATION_CONTEXT ( 'NONE', 'WORKASPACE' ) );
#288 = EDGE_CURVE ( 'NONE', #304, #48, #155, .T. ) ;
#289 = DIRECTION ( 'NONE',  ( 3.491481338843133355E-15, -1.276467311168695266E-16, 1.000000000000000000 ) ) ;
#290 = CARTESIAN_POINT ( 'NONE',  ( 1.000667421396370414E-13, -6.500000000000003553, 28.66025403784433223 ) ) ;
#291 = ORIENTED_EDGE ( 'NONE', *, *, #135, .T. ) ;
#292 = APPLICATION_CONTEXT ( 'configuration controlled 3d designs of mechanical parts and assemblies' ) ;
#293 = CALENDAR_DATE ( 2023, 31, 3 ) ;
#294 = ORIENTED_EDGE ( 'NONE', *, *, #93, .F. ) ;
#295 = PRODUCT_DEFINITION_SHAPE ( 'NONE', 'NONE',  #206 ) ;
#296 = CARTESIAN_POINT ( 'NONE',  ( 1.008627625590828325E-13, 6.499999999999996447, 28.66025403784433223 ) ) ;
#297 = DIRECTION ( 'NONE',  ( -3.491481338843133355E-15, 1.224646799147353207E-16, -1.000000000000000000 ) ) ;
#298 = CIRCLE ( 'NONE', #76, 1.499999999999999556 ) ;
#299 = FACE_OUTER_BOUND ( 'NONE', #176, .T. ) ;
#300 = CARTESIAN_POINT ( 'NONE',  ( 1.764110371408777265E-14, 1.499999999999997558, 10.00000000000000000 ) ) ;
#301 = ORIENTED_EDGE ( 'NONE', *, *, #15, .T. ) ;
#302 = LOCAL_TIME ( 9, 8, 57.00000000000000000, #227 ) ;
#303 = FACE_OUTER_BOUND ( 'NONE', #279, .T. ) ;
#304 = VERTEX_POINT ( 'NONE', #140 ) ;
#305 = DIRECTION ( 'NONE',  ( -4.456761796588771413E-31, -1.000000000000000000, -1.276467311168694772E-16 ) ) ;
#306 = ORIENTED_EDGE ( 'NONE', *, *, #192, .T. ) ;
#307 = DIRECTION ( 'NONE',  ( 0.000000000000000000, -1.000000000000000000, 0.000000000000000000 ) ) ;
#308 = ORIENTED_EDGE ( 'NONE', *, *, #38, .T. ) ;
#309 = DIRECTION ( 'NONE',  ( 3.491481338843133355E-15, -1.276467311168695266E-16, 1.000000000000000000 ) ) ;
#310 = AXIS2_PLACEMENT_3D ( 'NONE', #311, #331, #282 ) ;
#311 = CARTESIAN_POINT ( 'NONE',  ( 1.724791781388508004E-13, -6.049755187787925154E-15, 49.39999999999999858 ) ) ;
#312 = VERTEX_POINT ( 'NONE', #334 ) ;
#313 = LINE ( 'NONE', #290, #75 ) ;
#314 = CIRCLE ( 'NONE', #36, 1.499999999999999556 ) ;
#315 = AXIS2_PLACEMENT_3D ( 'NONE', #363, #147, #233 ) ;
#316 = ORIENTED_EDGE ( 'NONE', *, *, #288, .T. ) ;
#317 =( NAMED_UNIT ( * ) PLANE_ANGLE_UNIT ( ) SI_UNIT ( $, .RADIAN. ) );
#318 = DIRECTION ( 'NONE',  ( -3.491481338843133355E-15, 1.224646799147353207E-16, -1.000000000000000000 ) ) ;
#319 = CONICAL_SURFACE ( 'NONE', #57, 6.500000000000000000, 0.2617993877991501850 ) ;
#320 = APPROVAL_DATE_TIME ( #185, #96 ) ;
#321 = CYLINDRICAL_SURFACE ( 'NONE', #183, 2.999999999999999112 ) ;
#322 = ORIENTED_EDGE ( 'NONE', *, *, #288, .F. ) ;
#323 = PRODUCT_RELATED_PRODUCT_CATEGORY ( 'detail', '', ( #122 ) ) ;
#324 = CC_DESIGN_DATE_AND_TIME_ASSIGNMENT ( #359, #205, ( #206 ) ) ;
#325 = DIRECTION ( 'NONE',  ( -3.491481338843133355E-15, 1.224646799147353207E-16, -1.000000000000000000 ) ) ;
#326 = SHAPE_DEFINITION_REPRESENTATION ( #295, #266 ) ;
#327 = DIRECTION ( 'NONE',  ( 3.491481338843133355E-15, -1.276467311168695266E-16, 1.000000000000000000 ) ) ;
#328 = CARTESIAN_POINT ( 'NONE',  ( -2.699534206289369255E-30, 7.524489584330195340E-32, -7.731773262702965640E-16 ) ) ;
#329 = ORIENTED_EDGE ( 'NONE', *, *, #15, .F. ) ;
#330 = LINE ( 'NONE', #258, #44 ) ;
#331 = DIRECTION ( 'NONE',  ( -3.491481338843133355E-15, 1.224646799147353207E-16, -1.000000000000000000 ) ) ;
#332 = DIRECTION ( 'NONE',  ( 0.000000000000000000, -1.000000000000000000, 0.000000000000000000 ) ) ;
#333 = VERTEX_POINT ( 'NONE', #221 ) ;
#334 = CARTESIAN_POINT ( 'NONE',  ( 4.496314823092033687E-14, 1.499999999999997558, 10.00000000000000000 ) ) ;
#335 = ORIENTED_EDGE ( 'NONE', *, *, #55, .F. ) ;
#336 = FACE_OUTER_BOUND ( 'NONE', #68, .T. ) ;
#337 = DESIGN_CONTEXT ( 'detailed design', #292, 'design' ) ;
#338 = VECTOR ( 'NONE', #66, 1000.000000000000000 ) ;
#339 = CARTESIAN_POINT ( 'NONE',  ( -6.413839710158237013E-31, 0.000000000000000000, -1.836996703606440502E-16 ) ) ;
#340 = LOCAL_TIME ( 9, 8, 57.00000000000000000, #180 ) ;
#341 = FACE_OUTER_BOUND ( 'NONE', #348, .T. ) ;
#342 = PERSON_AND_ORGANIZATION ( #114, #260 ) ;
#343 = FACE_OUTER_BOUND ( 'NONE', #263, .T. ) ;
#344 = ORIENTED_EDGE ( 'NONE', *, *, #102, .F. ) ;
#345 = FACE_OUTER_BOUND ( 'NONE', #249, .T. ) ;
#346 = ADVANCED_FACE ( 'NONE', ( #255 ), #22, .T. ) ;
#347 = DIRECTION ( 'NONE',  ( -2.468850131082271655E-15, 0.7071067811865455743, -0.7071067811865493491 ) ) ;
#348 = EDGE_LOOP ( 'NONE', ( #136, #277 ) ) ;
#349 = AXIS2_PLACEMENT_3D ( 'NONE', #156, #1, #238 ) ;
#350 = AXIS2_PLACEMENT_3D ( 'NONE', #280, #351, #108 ) ;
#351 = DIRECTION ( 'NONE',  ( -3.491481338843133355E-15, 1.224646799147353207E-16, -1.000000000000000000 ) ) ;
#352 = VERTEX_POINT ( 'NONE', #79 ) ;
#353 = CARTESIAN_POINT ( 'NONE',  ( 1.000667421396370414E-13, -3.658387740909889804E-15, 28.66025403784433223 ) ) ;
#354 = EDGE_LOOP ( 'NONE', ( #109, #301, #316, #198 ) ) ;
#355 = CARTESIAN_POINT ( 'NONE',  ( 3.491481338843133355E-14, -1.276467311168695364E-15, 10.00000000000000000 ) ) ;
#356 = AXIS2_PLACEMENT_3D ( 'NONE', #90, #145, #120 ) ;
#357 = DIRECTION ( 'NONE',  ( -4.456761796588771413E-31, -1.000000000000000000, -1.276467311168694772E-16 ) ) ;
#358 = APPLICATION_PROTOCOL_DEFINITION ( 'international standard', 'config_control_design', 1994, #292 ) ;
#359 = DATE_AND_TIME ( #267, #340 ) ;
#360 = CIRCLE ( 'NONE', #242, 1.499999999999998890 ) ;
#361 = CC_DESIGN_PERSON_AND_ORGANIZATION_ASSIGNMENT ( #261, #178, ( #122 ) ) ;
#362 = DATE_AND_TIME ( #293, #252 ) ;
#363 = CARTESIAN_POINT ( 'NONE',  ( 1.745740669421566678E-13, -6.123233995736766085E-15, 50.00000000000000000 ) ) ;
ENDSEC;
END-ISO-10303-21;
