ISO-10303-21;
HEADER;
FILE_DESCRIPTION (( 'STEP AP203' ),
    '1' );
FILE_NAME ('372731.step',
    '2023-03-31T07:08:56',
    ( '' ),
    ( '' ),
    'SwSTEP 2.0',
    'SolidWorks 2022',
    '' );
FILE_SCHEMA (( 'CONFIG_CONTROL_DESIGN' ));
ENDSEC;

DATA;
#1 = DIRECTION ( 'NONE',  ( 4.275831445896957731E-31, 1.000000000000000000, 1.224646799147353207E-16 ) ) ;
#2 = MANIFOLD_SOLID_BREP ( 'Corps-Déplacer/Copier1[1]', #348 ) ;
#3 = CARTESIAN_POINT ( 'NONE',  ( 1.414962237524463930E-14, 1.499999999999999556, -5.817072295950417506E-16 ) ) ;
#4 = ORIENTED_EDGE ( 'NONE', *, *, #143, .F. ) ;
#5 = PERSON_AND_ORGANIZATION ( #363, #161 ) ;
#6 = EDGE_CURVE ( 'NONE', #31, #303, #128, .T. ) ;
#7 = PERSON_AND_ORGANIZATION_ROLE ( 'creator' ) ;
#8 = DIRECTION ( 'NONE',  ( 0.000000000000000000, -1.000000000000000000, 0.000000000000000000 ) ) ;
#9 = LOCAL_TIME ( 9, 8, 56.00000000000000000, #144 ) ;
#10 = DIRECTION ( 'NONE',  ( 3.491481338843133355E-15, -1.276467311168695266E-16, 1.000000000000000000 ) ) ;
#11 = ORIENTED_EDGE ( 'NONE', *, *, #204, .F. ) ;
#12 = CARTESIAN_POINT ( 'NONE',  ( 1.382626610181880809E-13, -4.849601324623518809E-15, 39.60000000000000142 ) ) ;
#13 = PLANE ( 'NONE',  #184 ) ;
#14 = CC_DESIGN_DATE_AND_TIME_ASSIGNMENT ( #120, #172, ( #257 ) ) ;
#15 = CARTESIAN_POINT ( 'NONE',  ( 2.793185071074506684E-14, -1.500000000000000444, 8.000000000000000000 ) ) ;
#16 = EDGE_CURVE ( 'NONE', #31, #295, #212, .T. ) ;
#17 = CARTESIAN_POINT ( 'NONE',  ( -6.413839710158237013E-31, 0.000000000000000000, -1.836996703606440502E-16 ) ) ;
#18 = ORIENTED_EDGE ( 'NONE', *, *, #166, .F. ) ;
#19 = CIRCLE ( 'NONE', #197, 2.000000000000000000 ) ;
#20 = MECHANICAL_CONTEXT ( 'NONE', #262, 'mechanical' ) ;
#21 = ORIENTED_EDGE ( 'NONE', *, *, #90, .T. ) ;
#22 = DIRECTION ( 'NONE',  ( 1.000000000000000000, 0.000000000000000000, 0.000000000000000000 ) ) ;
#23 = PRODUCT ( '372731', '372731', '', ( #20 ) ) ;
#24 = CARTESIAN_POINT ( 'NONE',  ( 1.382626610181880809E-13, -4.849601324623518809E-15, 39.60000000000000142 ) ) ;
#25 = DIRECTION ( 'NONE',  ( 3.491481338843133355E-15, -1.276467311168695266E-16, 1.000000000000000000 ) ) ;
#26 = AXIS2_PLACEMENT_3D ( 'NONE', #60, #39, #58 ) ;
#27 = ORIENTED_EDGE ( 'NONE', *, *, #160, .F. ) ;
#28 = AXIS2_PLACEMENT_3D ( 'NONE', #194, #151, #8 ) ;
#29 = COORDINATED_UNIVERSAL_TIME_OFFSET ( 1, 0, .AHEAD. ) ;
#30 = DIRECTION ( 'NONE',  ( 3.372511997194914833E-15, -0.2588190451025215166, 0.9659258262890679791 ) ) ;
#31 = VERTEX_POINT ( 'NONE', #279 ) ;
#32 = CARTESIAN_POINT ( 'NONE',  ( 2.793185071074506684E-14, 1.499759782661853229E-32, 8.000000000000000000 ) ) ;
#33 = CALENDAR_DATE ( 2023, 31, 3 ) ;
#34 = COORDINATED_UNIVERSAL_TIME_OFFSET ( 1, 0, .AHEAD. ) ;
#35 = FACE_OUTER_BOUND ( 'NONE', #347, .T. ) ;
#36 = ORIENTED_EDGE ( 'NONE', *, *, #150, .T. ) ;
#37 = LOCAL_TIME ( 9, 8, 56.00000000000000000, #322 ) ;
#38 = LOCAL_TIME ( 9, 8, 56.00000000000000000, #29 ) ;
#39 = DIRECTION ( 'NONE',  ( -3.491481338843133355E-15, 1.224646799147353207E-16, -1.000000000000000000 ) ) ;
#40 = CARTESIAN_POINT ( 'NONE',  ( 2.793185071074506684E-14, 1.499759782661853229E-32, 8.000000000000000000 ) ) ;
#41 = EDGE_LOOP ( 'NONE', ( #352, #92 ) ) ;
#42 = VERTEX_POINT ( 'NONE', #304 ) ;
#43 = ORIENTED_EDGE ( 'NONE', *, *, #16, .F. ) ;
#44 = ORIENTED_EDGE ( 'NONE', *, *, #187, .F. ) ;
#45 = AXIS2_PLACEMENT_3D ( 'NONE', #201, #261, #326 ) ;
#46 = CARTESIAN_POINT ( 'NONE',  ( -1.309898240504139063E-30, -1.499999999999999556, -3.751697670359483154E-16 ) ) ;
#47 = VERTEX_POINT ( 'NONE', #168 ) ;
#48 = AXIS2_PLACEMENT_3D ( 'NONE', #76, #258, #221 ) ;
#49 = APPROVAL_PERSON_ORGANIZATION ( #82, #119, #149 ) ;
#50 = ORIENTED_EDGE ( 'NONE', *, *, #250, .T. ) ;
#51 = PERSON_AND_ORGANIZATION_ROLE ( 'creator' ) ;
#52 = ORIENTED_EDGE ( 'NONE', *, *, #100, .T. ) ;
#53 = APPROVAL_STATUS ( 'not_yet_approved' ) ;
#54 = FACE_OUTER_BOUND ( 'NONE', #339, .T. ) ;
#55 = CYLINDRICAL_SURFACE ( 'NONE', #26, 1.999999999999998224 ) ;
#56 = APPROVAL_PERSON_ORGANIZATION ( #134, #319, #242 ) ;
#57 = PERSON_AND_ORGANIZATION_ROLE ( 'classification_officer' ) ;
#58 = DIRECTION ( 'NONE',  ( 4.275831445896957731E-31, 1.000000000000000000, 1.224646799147353207E-16 ) ) ;
#59 = APPROVAL_STATUS ( 'not_yet_approved' ) ;
#60 = CARTESIAN_POINT ( 'NONE',  ( 0.000000000000000000, 0.000000000000000000, 0.000000000000000000 ) ) ;
#61 = AXIS2_PLACEMENT_3D ( 'NONE', #123, #286, #1 ) ;
#62 = CARTESIAN_POINT ( 'NONE',  ( 2.793185071074506684E-14, -1.021173848934956212E-15, 8.000000000000000000 ) ) ;
#63 = EDGE_LOOP ( 'NONE', ( #235, #334, #21, #44 ) ) ;
#64 = ADVANCED_FACE ( 'NONE', ( #274 ), #207, .T. ) ;
#65 = DIRECTION ( 'NONE',  ( -3.491481338843133355E-15, 1.224646799147353207E-16, -1.000000000000000000 ) ) ;
#66 = EDGE_LOOP ( 'NONE', ( #50, #36, #362, #154 ) ) ;
#67 = CIRCLE ( 'NONE', #103, 1.999999999999998224 ) ;
#68 = CARTESIAN_POINT ( 'NONE',  ( 1.396592535537253342E-13, -4.898587196589413026E-15, 40.00000000000000000 ) ) ;
#69 = ORIENTED_EDGE ( 'NONE', *, *, #353, .T. ) ;
#70 = CC_DESIGN_PERSON_AND_ORGANIZATION_ASSIGNMENT ( #107, #215, ( #23 ) ) ;
#71 = DIRECTION ( 'NONE',  ( 3.491481338843133355E-15, -1.224646799147353207E-16, 1.000000000000000000 ) ) ;
#72 = DIRECTION ( 'NONE',  ( 3.491481338843133355E-15, -1.276467311168695266E-16, 1.000000000000000000 ) ) ;
#73 = ORIENTED_EDGE ( 'NONE', *, *, #16, .T. ) ;
#74 = CIRCLE ( 'NONE', #317, 1.600000000000000311 ) ;
#75 = DIRECTION ( 'NONE',  ( 4.275831445896958607E-31, 1.000000000000000000, 1.224646799147353207E-16 ) ) ;
#76 = CARTESIAN_POINT ( 'NONE',  ( 9.308377946195078733E-14, -3.403094278676150455E-15, 26.66025403784433223 ) ) ;
#77 = CARTESIAN_POINT ( 'NONE',  ( -2.699534206289369255E-30, 7.524489584330195340E-32, -7.731773262702965640E-16 ) ) ;
#78 = AXIS2_PLACEMENT_3D ( 'NONE', #301, #296, #294 ) ;
#79 = APPROVAL_DATE_TIME ( #117, #119 ) ;
#80 = LINE ( 'NONE', #320, #340 ) ;
#81 = CC_DESIGN_PERSON_AND_ORGANIZATION_ASSIGNMENT ( #171, #57, ( #257 ) ) ;
#82 = PERSON_AND_ORGANIZATION ( #363, #161 ) ;
#83 = CARTESIAN_POINT ( 'NONE',  ( 3.444704358586562248E-14, -1.259365891909075084E-15, 9.866025403784430381 ) ) ;
#84 = CALENDAR_DATE ( 2023, 31, 3 ) ;
#85 = LINE ( 'NONE', #225, #330 ) ;
#86 = AXIS2_PLACEMENT_3D ( 'NONE', #24, #170, #188 ) ;
#87 = CONICAL_SURFACE ( 'NONE', #192, 1.600000000000000311, 0.7853981633974510546 ) ;
#88 = CALENDAR_DATE ( 2023, 31, 3 ) ;
#89 = CARTESIAN_POINT ( 'NONE',  ( 1.396592535537253342E-13, -4.898587196589413026E-15, 40.00000000000000000 ) ) ;
#90 = EDGE_CURVE ( 'NONE', #295, #42, #277, .T. ) ;
#91 = DIRECTION ( 'NONE',  ( 3.404208188709233130E-15, 0.2588190451025213501, 0.9659258262890680902 ) ) ;
#92 = ORIENTED_EDGE ( 'NONE', *, *, #353, .F. ) ;
#93 = CARTESIAN_POINT ( 'NONE',  ( 8.659978166185623046E-14, -2.000000000000004885, 39.60000000000000142 ) ) ;
#94 = ORIENTED_EDGE ( 'NONE', *, *, #160, .T. ) ;
#95 = AXIS2_PLACEMENT_3D ( 'NONE', #342, #323, #249 ) ;
#96 = DIRECTION ( 'NONE',  ( 3.491481338843133355E-15, -1.276467311168695266E-16, 1.000000000000000000 ) ) ;
#97 = VERTEX_POINT ( 'NONE', #291 ) ;
#98 = FACE_OUTER_BOUND ( 'NONE', #41, .T. ) ;
#99 = EDGE_LOOP ( 'NONE', ( #4, #106, #147, #309 ) ) ;
#100 = EDGE_CURVE ( 'NONE', #97, #275, #74, .T. ) ;
#101 = PLANE ( 'NONE',  #240 ) ;
#102 = EDGE_CURVE ( 'NONE', #42, #295, #67, .T. ) ;
#103 = AXIS2_PLACEMENT_3D ( 'NONE', #83, #344, #176 ) ;
#104 =( NAMED_UNIT ( * ) SI_UNIT ( $, .STERADIAN. ) SOLID_ANGLE_UNIT ( ) );
#105 = CC_DESIGN_APPROVAL ( #214, ( #257 ) ) ;
#106 = ORIENTED_EDGE ( 'NONE', *, *, #166, .T. ) ;
#107 = PERSON_AND_ORGANIZATION ( #363, #161 ) ;
#108 = ORIENTED_EDGE ( 'NONE', *, *, #90, .F. ) ;
#109 = APPLICATION_PROTOCOL_DEFINITION ( 'international standard', 'config_control_design', 1994, #262 ) ;
#110 = ORIENTED_EDGE ( 'NONE', *, *, #263, .F. ) ;
#111 = VECTOR ( 'NONE', #155, 1000.000000000000000 ) ;
#112 = CARTESIAN_POINT ( 'NONE',  ( 1.396592535537253342E-13, -4.898587196589413026E-15, 40.00000000000000000 ) ) ;
#113 = PRODUCT_DEFINITION ( 'UNKNOWN', '', #357, #269 ) ;
#114 = APPROVAL_ROLE ( '' ) ;
#115 = DIRECTION ( 'NONE',  ( -3.491481338843133355E-15, 1.224646799147353207E-16, -1.000000000000000000 ) ) ;
#116 = ADVANCED_FACE ( 'NONE', ( #222 ), #55, .T. ) ;
#117 = DATE_AND_TIME ( #280, #37 ) ;
#118 = LINE ( 'NONE', #200, #360 ) ;
#119 = APPROVAL ( #53, 'UNSPECIFIED' ) ;
#120 = DATE_AND_TIME ( #84, #38 ) ;
#121 = CARTESIAN_POINT ( 'NONE',  ( 9.308377946195078733E-14, -6.500000000000003553, 26.66025403784433223 ) ) ;
#122 = VECTOR ( 'NONE', #30, 1000.000000000000114 ) ;
#123 = CARTESIAN_POINT ( 'NONE',  ( 0.000000000000000000, 0.000000000000000000, 0.000000000000000000 ) ) ;
#124 = ADVANCED_FACE ( 'NONE', ( #54 ), #148, .T. ) ;
#125 = EDGE_CURVE ( 'NONE', #275, #97, #153, .T. ) ;
#126 = MANIFOLD_SOLID_BREP ( 'Corps-Déplacer/Copier1[2]', #189 ) ;
#127 = CARTESIAN_POINT ( 'NONE',  ( -3.206893176760999064E-31, 1.124826709063586057E-32, -9.184907108292236459E-17 ) ) ;
#128 = CIRCLE ( 'NONE', #86, 2.000000000000000000 ) ;
#129 = VECTOR ( 'NONE', #267, 1000.000000000000000 ) ;
#130 = DIRECTION ( 'NONE',  ( -4.456761796588771413E-31, -1.000000000000000000, -1.276467311168694772E-16 ) ) ;
#131 = FACE_OUTER_BOUND ( 'NONE', #297, .T. ) ;
#132 = DIRECTION ( 'NONE',  ( 3.491481338843133355E-15, -1.276467311168695266E-16, 1.000000000000000000 ) ) ;
#133 = CIRCLE ( 'NONE', #78, 1.499999999999999334 ) ;
#134 = PERSON_AND_ORGANIZATION ( #363, #161 ) ;
#135 = ORIENTED_EDGE ( 'NONE', *, *, #6, .T. ) ;
#136 = ORIENTED_EDGE ( 'NONE', *, *, #325, .T. ) ;
#137 = ADVANCED_FACE ( 'NONE', ( #35 ), #290, .T. ) ;
#138 = FACE_OUTER_BOUND ( 'NONE', #195, .T. ) ;
#139 = CC_DESIGN_APPROVAL ( #319, ( #113 ) ) ;
#140 = VERTEX_POINT ( 'NONE', #3 ) ;
#141 = UNCERTAINTY_MEASURE_WITH_UNIT (LENGTH_MEASURE( 1.000000000000000082E-05 ), #209, 'distance_accuracy_value', 'NONE');
#142 =( NAMED_UNIT ( * ) PLANE_ANGLE_UNIT ( ) SI_UNIT ( $, .RADIAN. ) );
#143 = EDGE_CURVE ( 'NONE', #158, #295, #118, .T. ) ;
#144 = COORDINATED_UNIVERSAL_TIME_OFFSET ( 1, 0, .AHEAD. ) ;
#145 = AXIS2_PLACEMENT_3D ( 'NONE', #276, #336, #75 ) ;
#146 = FACE_OUTER_BOUND ( 'NONE', #355, .T. ) ;
#147 = ORIENTED_EDGE ( 'NONE', *, *, #187, .T. ) ;
#148 = CYLINDRICAL_SURFACE ( 'NONE', #61, 1.999999999999998224 ) ;
#149 = APPROVAL_ROLE ( '' ) ;
#150 = EDGE_CURVE ( 'NONE', #140, #47, #80, .T. ) ;
#151 = DIRECTION ( 'NONE',  ( 3.491481338843133355E-15, -1.276467311168695266E-16, 1.000000000000000000 ) ) ;
#152 = DATE_AND_TIME ( #312, #350 ) ;
#153 = CIRCLE ( 'NONE', #234, 1.600000000000000311 ) ;
#154 = ORIENTED_EDGE ( 'NONE', *, *, #325, .F. ) ;
#155 = DIRECTION ( 'NONE',  ( -2.468850131082258244E-15, 0.7071067811865495711, -0.7071067811865454633 ) ) ;
#156 = CC_DESIGN_PERSON_AND_ORGANIZATION_ASSIGNMENT ( #287, #224, ( #357 ) ) ;
#157 = CARTESIAN_POINT ( 'NONE',  ( 2.793185071074506684E-14, -1.021173848934956212E-15, 8.000000000000000000 ) ) ;
#158 = VERTEX_POINT ( 'NONE', #198 ) ;
#159 = FACE_OUTER_BOUND ( 'NONE', #288, .T. ) ;
#160 = EDGE_CURVE ( 'NONE', #97, #303, #85, .T. ) ;
#161 = ORGANIZATION ( 'UNSPECIFIED', 'UNSPECIFIED', '' ) ;
#162 = PRODUCT_RELATED_PRODUCT_CATEGORY ( 'detail', '', ( #23 ) ) ;
#163 = CARTESIAN_POINT ( 'NONE',  ( 9.308377946195078733E-14, -3.403094278676150455E-15, 26.66025403784433223 ) ) ;
#164 = ORIENTED_EDGE ( 'NONE', *, *, #100, .F. ) ;
#165 = CC_DESIGN_PERSON_AND_ORGANIZATION_ASSIGNMENT ( #5, #7, ( #113 ) ) ;
#166 = EDGE_CURVE ( 'NONE', #158, #182, #177, .T. ) ;
#167 = AXIS2_PLACEMENT_3D ( 'NONE', #331, #206, #130 ) ;
#168 = CARTESIAN_POINT ( 'NONE',  ( 1.414962237524463614E-14, 1.499999999999998224, 8.000000000000000000 ) ) ;
#169 = LINE ( 'NONE', #46, #251 ) ;
#170 = DIRECTION ( 'NONE',  ( -3.491481338843133355E-15, 1.224646799147353207E-16, -1.000000000000000000 ) ) ;
#171 = PERSON_AND_ORGANIZATION ( #363, #161 ) ;
#172 = DATE_TIME_ROLE ( 'classification_date' ) ;
#173 = DIRECTION ( 'NONE',  ( 0.000000000000000000, 1.000000000000000000, 0.000000000000000000 ) ) ;
#174 = PLANE ( 'NONE',  #310 ) ;
#175 = DATE_AND_TIME ( #33, #264 ) ;
#176 = DIRECTION ( 'NONE',  ( 0.000000000000000000, -1.000000000000000000, 0.000000000000000000 ) ) ;
#177 = CIRCLE ( 'NONE', #28, 1.499999999999999334 ) ;
#178 = ORIENTED_EDGE ( 'NONE', *, *, #125, .F. ) ;
#179 = DIRECTION ( 'NONE',  ( -4.456761796588769661E-31, -1.000000000000000000, -1.276467311168695266E-16 ) ) ;
#180 = ORIENTED_EDGE ( 'NONE', *, *, #238, .T. ) ;
#181 = DIRECTION ( 'NONE',  ( 0.000000000000000000, -1.000000000000000000, 0.000000000000000000 ) ) ;
#182 = VERTEX_POINT ( 'NONE', #314 ) ;
#183 = CARTESIAN_POINT ( 'NONE',  ( 1.396592535537253342E-13, 1.599999999999995204, 40.00000000000000000 ) ) ;
#184 = AXIS2_PLACEMENT_3D ( 'NONE', #127, #356, #359 ) ;
#185 = DIRECTION ( 'NONE',  ( 0.000000000000000000, -1.000000000000000000, 0.000000000000000000 ) ) ;
#186 = CYLINDRICAL_SURFACE ( 'NONE', #45, 1.499999999999999556 ) ;
#187 = EDGE_CURVE ( 'NONE', #182, #42, #283, .T. ) ;
#188 = DIRECTION ( 'NONE',  ( 0.000000000000000000, 1.000000000000000000, 0.000000000000000000 ) ) ;
#189 = CLOSED_SHELL ( 'NONE', ( #316, #190, #289, #321 ) ) ;
#190 = ADVANCED_FACE ( 'NONE', ( #146 ), #174, .T. ) ;
#191 = CC_DESIGN_DATE_AND_TIME_ASSIGNMENT ( #252, #220, ( #113 ) ) ;
#192 = AXIS2_PLACEMENT_3D ( 'NONE', #68, #299, #260 ) ;
#193 = PERSON_AND_ORGANIZATION ( #363, #161 ) ;
#194 = CARTESIAN_POINT ( 'NONE',  ( 2.793185071074506684E-14, -1.021173848934956212E-15, 8.000000000000000000 ) ) ;
#195 = EDGE_LOOP ( 'NONE', ( #178, #164 ) ) ;
#196 = DIRECTION ( 'NONE',  ( -2.382254525458709186E-15, -0.7071067811865493491, -0.7071067811865456854 ) ) ;
#197 = AXIS2_PLACEMENT_3D ( 'NONE', #12, #65, #302 ) ;
#198 = CARTESIAN_POINT ( 'NONE',  ( 3.140376033815614064E-14, 1.499999999999998224, 8.000000000000000000 ) ) ;
#199 = APPROVAL_DATE_TIME ( #175, #319 ) ;
#200 = CARTESIAN_POINT ( 'NONE',  ( 9.387979988139656579E-14, 6.499999999999996447, 26.66025403784433223 ) ) ;
#201 = CARTESIAN_POINT ( 'NONE',  ( -6.413839710158237013E-31, 0.000000000000000000, -1.836996703606440502E-16 ) ) ;
#202 = CIRCLE ( 'NONE', #305, 1.499999999999999334 ) ;
#203 = CARTESIAN_POINT ( 'NONE',  ( 1.396592535537253342E-13, 1.599999999999995204, 40.00000000000000000 ) ) ;
#204 = EDGE_CURVE ( 'NONE', #303, #31, #19, .T. ) ;
#205 = FACE_OUTER_BOUND ( 'NONE', #231, .T. ) ;
#206 = DIRECTION ( 'NONE',  ( 3.491481338843133355E-15, -1.276467311168695266E-16, 1.000000000000000000 ) ) ;
#207 = CONICAL_SURFACE ( 'NONE', #48, 6.500000000000000000, 0.2617993877991501850 ) ;
#208 = FACE_OUTER_BOUND ( 'NONE', #99, .T. ) ;
#209 =( LENGTH_UNIT ( ) NAMED_UNIT ( * ) SI_UNIT ( .MILLI., .METRE. ) );
#210 = CC_DESIGN_PERSON_AND_ORGANIZATION_ASSIGNMENT ( #248, #51, ( #357 ) ) ;
#211 = PLANE ( 'NONE',  #145 ) ;
#212 = LINE ( 'NONE', #244, #298 ) ;
#213 = AXIS2_PLACEMENT_3D ( 'NONE', #270, #273, #22 ) ;
#214 = APPROVAL ( #59, 'UNSPECIFIED' ) ;
#215 = PERSON_AND_ORGANIZATION_ROLE ( 'design_owner' ) ;
#216 = ORIENTED_EDGE ( 'NONE', *, *, #6, .F. ) ;
#217 = VERTEX_POINT ( 'NONE', #15 ) ;
#218 = CONICAL_SURFACE ( 'NONE', #272, 6.500000000000000000, 0.2617993877991501850 ) ;
#219 = EDGE_CURVE ( 'NONE', #303, #42, #233, .T. ) ;
#220 = DATE_TIME_ROLE ( 'creation_date' ) ;
#221 = DIRECTION ( 'NONE',  ( 0.000000000000000000, -1.000000000000000000, 0.000000000000000000 ) ) ;
#222 = FACE_OUTER_BOUND ( 'NONE', #247, .T. ) ;
#223 = ORIENTED_EDGE ( 'NONE', *, *, #245, .F. ) ;
#224 = PERSON_AND_ORGANIZATION_ROLE ( 'design_supplier' ) ;
#225 = CARTESIAN_POINT ( 'NONE',  ( 1.398551970415888953E-13, -1.600000000000005196, 40.00000000000000000 ) ) ;
#226 = CIRCLE ( 'NONE', #300, 1.499999999999999334 ) ;
#227 = CIRCLE ( 'NONE', #278, 1.499999999999999556 ) ;
#228 = CARTESIAN_POINT ( 'NONE',  ( 1.396592535537253342E-13, -4.898587196589413026E-15, 40.00000000000000000 ) ) ;
#229 = ORIENTED_EDGE ( 'NONE', *, *, #102, .F. ) ;
#230 = DIRECTION ( 'NONE',  ( 3.491481338843133355E-15, -1.224646799147353207E-16, 1.000000000000000000 ) ) ;
#231 = EDGE_LOOP ( 'NONE', ( #335, #69, #136, #332 ) ) ;
#232 = ADVANCED_FACE ( 'NONE', ( #208 ), #218, .T. ) ;
#233 = LINE ( 'NONE', #333, #129 ) ;
#234 = AXIS2_PLACEMENT_3D ( 'NONE', #112, #285, #253 ) ;
#235 = ORIENTED_EDGE ( 'NONE', *, *, #263, .T. ) ;
#236 = DIRECTION ( 'NONE',  ( -4.275831445896958607E-31, -1.000000000000000000, -1.224646799147353207E-16 ) ) ;
#237 = CYLINDRICAL_SURFACE ( 'NONE', #284, 1.499999999999999556 ) ;
#238 = EDGE_CURVE ( 'NONE', #47, #217, #133, .T. ) ;
#239 = DIRECTION ( 'NONE',  ( 3.491481338843133355E-15, -1.276467311168695266E-16, 1.000000000000000000 ) ) ;
#240 = AXIS2_PLACEMENT_3D ( 'NONE', #40, #71, #236 ) ;
#241 = CC_DESIGN_SECURITY_CLASSIFICATION ( #257, ( #357 ) ) ;
#242 = APPROVAL_ROLE ( '' ) ;
#243 = VERTEX_POINT ( 'NONE', #328 ) ;
#244 = CARTESIAN_POINT ( 'NONE',  ( 8.551662891793908455E-31, 1.999999999999998224, 2.449293598294704442E-16 ) ) ;
#245 = EDGE_CURVE ( 'NONE', #275, #31, #351, .T. ) ;
#246 = AXIS2_PLACEMENT_3D ( 'NONE', #89, #341, #173 ) ;
#247 = EDGE_LOOP ( 'NONE', ( #135, #327, #108, #43 ) ) ;
#248 = PERSON_AND_ORGANIZATION ( #363, #161 ) ;
#249 = DIRECTION ( 'NONE',  ( -2.664535259100376013E-14, -1.000000000000000000, 0.000000000000000000 ) ) ;
#250 = EDGE_CURVE ( 'NONE', #243, #140, #324, .T. ) ;
#251 = VECTOR ( 'NONE', #72, 1000.000000000000000 ) ;
#252 = DATE_AND_TIME ( #88, #9 ) ;
#253 = DIRECTION ( 'NONE',  ( 0.000000000000000000, 1.000000000000000000, 0.000000000000000000 ) ) ;
#254 = ORIENTED_EDGE ( 'NONE', *, *, #219, .F. ) ;
#255 = DIRECTION ( 'NONE',  ( 0.000000000000000000, 1.000000000000000000, 0.000000000000000000 ) ) ;
#256 = CC_DESIGN_APPROVAL ( #119, ( #357 ) ) ;
#257 = SECURITY_CLASSIFICATION ( '', '', #343 ) ;
#258 = DIRECTION ( 'NONE',  ( 3.491481338843133355E-15, -1.276467311168695266E-16, 1.000000000000000000 ) ) ;
#259 = ORIENTED_EDGE ( 'NONE', *, *, #306, .T. ) ;
#260 = DIRECTION ( 'NONE',  ( 0.000000000000000000, 1.000000000000000000, 0.000000000000000000 ) ) ;
#261 = DIRECTION ( 'NONE',  ( 3.491481338843133355E-15, -1.276467311168695266E-16, 1.000000000000000000 ) ) ;
#262 = APPLICATION_CONTEXT ( 'configuration controlled 3d designs of mechanical parts and assemblies' ) ;
#263 = EDGE_CURVE ( 'NONE', #182, #158, #226, .T. ) ;
#264 = LOCAL_TIME ( 9, 8, 56.00000000000000000, #318 ) ;
#265 = ADVANCED_BREP_SHAPE_REPRESENTATION ( '372731', ( #2, #126, #213 ), #349 ) ;
#266 = FACE_OUTER_BOUND ( 'NONE', #66, .T. ) ;
#267 = DIRECTION ( 'NONE',  ( -3.491481338843133355E-15, 1.224646799147353207E-16, -1.000000000000000000 ) ) ;
#268 = ADVANCED_FACE ( 'NONE', ( #131 ), #87, .T. ) ;
#269 = DESIGN_CONTEXT ( 'detailed design', #293, 'design' ) ;
#270 = CARTESIAN_POINT ( 'NONE',  ( 0.000000000000000000, 0.000000000000000000, 0.000000000000000000 ) ) ;
#271 = ORIENTED_EDGE ( 'NONE', *, *, #204, .T. ) ;
#272 = AXIS2_PLACEMENT_3D ( 'NONE', #163, #96, #181 ) ;
#273 = DIRECTION ( 'NONE',  ( 0.000000000000000000, 0.000000000000000000, 1.000000000000000000 ) ) ;
#274 = FACE_OUTER_BOUND ( 'NONE', #63, .T. ) ;
#275 = VERTEX_POINT ( 'NONE', #203 ) ;
#276 = CARTESIAN_POINT ( 'NONE',  ( 1.396592535537253342E-13, 1.199807826129478833E-32, 40.00000000000000000 ) ) ;
#277 = CIRCLE ( 'NONE', #95, 1.999999999999998224 ) ;
#278 = AXIS2_PLACEMENT_3D ( 'NONE', #77, #25, #307 ) ;
#279 = CARTESIAN_POINT ( 'NONE',  ( 1.382626610181880809E-13, 1.999999999999995337, 39.60000000000000142 ) ) ;
#280 = CALENDAR_DATE ( 2023, 31, 3 ) ;
#281 = DIRECTION ( 'NONE',  ( -3.491481338843133355E-15, 1.224646799147353207E-16, -1.000000000000000000 ) ) ;
#282 = APPROVAL_DATE_TIME ( #152, #214 ) ;
#283 = LINE ( 'NONE', #121, #122 ) ;
#284 = AXIS2_PLACEMENT_3D ( 'NONE', #17, #346, #179 ) ;
#285 = DIRECTION ( 'NONE',  ( -3.491481338843133355E-15, 1.224646799147353207E-16, -1.000000000000000000 ) ) ;
#286 = DIRECTION ( 'NONE',  ( -3.491481338843133355E-15, 1.224646799147353207E-16, -1.000000000000000000 ) ) ;
#287 = PERSON_AND_ORGANIZATION ( #363, #161 ) ;
#288 = EDGE_LOOP ( 'NONE', ( #110, #18 ) ) ;
#289 = ADVANCED_FACE ( 'NONE', ( #205 ), #237, .T. ) ;
#290 = CONICAL_SURFACE ( 'NONE', #246, 1.600000000000000311, 0.7853981633974510546 ) ;
#291 = CARTESIAN_POINT ( 'NONE',  ( 1.391813937098032232E-13, -1.600000000000005196, 40.00000000000000000 ) ) ;
#292 = ORIENTED_EDGE ( 'NONE', *, *, #125, .T. ) ;
#293 = APPLICATION_CONTEXT ( 'configuration controlled 3d designs of mechanical parts and assemblies' ) ;
#294 = DIRECTION ( 'NONE',  ( 0.000000000000000000, -1.000000000000000000, 0.000000000000000000 ) ) ;
#295 = VERTEX_POINT ( 'NONE', #329 ) ;
#296 = DIRECTION ( 'NONE',  ( 3.491481338843133355E-15, -1.276467311168695266E-16, 1.000000000000000000 ) ) ;
#297 = EDGE_LOOP ( 'NONE', ( #292, #94, #216, #223 ) ) ;
#298 = VECTOR ( 'NONE', #281, 1000.000000000000000 ) ;
#299 = DIRECTION ( 'NONE',  ( -3.491481338843133355E-15, 1.224646799147353207E-16, -1.000000000000000000 ) ) ;
#300 = AXIS2_PLACEMENT_3D ( 'NONE', #157, #132, #185 ) ;
#301 = CARTESIAN_POINT ( 'NONE',  ( 2.793185071074506684E-14, -1.021173848934956212E-15, 8.000000000000000000 ) ) ;
#302 = DIRECTION ( 'NONE',  ( 0.000000000000000000, 1.000000000000000000, 0.000000000000000000 ) ) ;
#303 = VERTEX_POINT ( 'NONE', #93 ) ;
#304 = CARTESIAN_POINT ( 'NONE',  ( 8.659978166185631882E-14, -1.999999999999999556, 9.866025403784430381 ) ) ;
#305 = AXIS2_PLACEMENT_3D ( 'NONE', #62, #239, #358 ) ;
#306 = EDGE_CURVE ( 'NONE', #217, #47, #202, .T. ) ;
#307 = DIRECTION ( 'NONE',  ( -4.456761796588771413E-31, -1.000000000000000000, -1.276467311168694772E-16 ) ) ;
#308 = APPROVAL_STATUS ( 'not_yet_approved' ) ;
#309 = ORIENTED_EDGE ( 'NONE', *, *, #102, .T. ) ;
#310 = AXIS2_PLACEMENT_3D ( 'NONE', #32, #230, #354 ) ;
#311 = ADVANCED_FACE ( 'NONE', ( #159 ), #101, .F. ) ;
#312 = CALENDAR_DATE ( 2023, 31, 3 ) ;
#313 = PRODUCT_DEFINITION_SHAPE ( 'NONE', 'NONE',  #113 ) ;
#314 = CARTESIAN_POINT ( 'NONE',  ( 2.793185071074506684E-14, -1.500000000000000444, 8.000000000000000000 ) ) ;
#315 = ORIENTED_EDGE ( 'NONE', *, *, #245, .T. ) ;
#316 = ADVANCED_FACE ( 'NONE', ( #266 ), #186, .T. ) ;
#317 = AXIS2_PLACEMENT_3D ( 'NONE', #228, #115, #255 ) ;
#318 = COORDINATED_UNIVERSAL_TIME_OFFSET ( 1, 0, .AHEAD. ) ;
#319 = APPROVAL ( #308, 'UNSPECIFIED' ) ;
#320 = CARTESIAN_POINT ( 'NONE',  ( 1.836970198721029441E-16, 1.499999999999999556, 7.770426314659547788E-18 ) ) ;
#321 = ADVANCED_FACE ( 'NONE', ( #98 ), #13, .F. ) ;
#322 = COORDINATED_UNIVERSAL_TIME_OFFSET ( 1, 0, .AHEAD. ) ;
#323 = DIRECTION ( 'NONE',  ( -3.491481338843133355E-15, 1.276467311168695266E-16, -1.000000000000000000 ) ) ;
#324 = CIRCLE ( 'NONE', #167, 1.499999999999999556 ) ;
#325 = EDGE_CURVE ( 'NONE', #243, #217, #169, .T. ) ;
#326 = DIRECTION ( 'NONE',  ( -4.456761796588769661E-31, -1.000000000000000000, -1.276467311168695266E-16 ) ) ;
#327 = ORIENTED_EDGE ( 'NONE', *, *, #219, .T. ) ;
#328 = CARTESIAN_POINT ( 'NONE',  ( -3.368048475777684354E-30, -1.499999999999999556, -9.646474229456007799E-16 ) ) ;
#329 = CARTESIAN_POINT ( 'NONE',  ( 8.635485230202689901E-14, 1.999999999999997113, 9.866025403784430381 ) ) ;
#330 = VECTOR ( 'NONE', #196, 1000.000000000000000 ) ;
#331 = CARTESIAN_POINT ( 'NONE',  ( -2.699534206289369255E-30, 7.524489584330195340E-32, -7.731773262702965640E-16 ) ) ;
#332 = ORIENTED_EDGE ( 'NONE', *, *, #238, .F. ) ;
#333 = CARTESIAN_POINT ( 'NONE',  ( 2.449293598294696061E-16, -1.999999999999998224, -2.449293598294712331E-16 ) ) ;
#334 = ORIENTED_EDGE ( 'NONE', *, *, #143, .T. ) ;
#335 = ORIENTED_EDGE ( 'NONE', *, *, #150, .F. ) ;
#336 = DIRECTION ( 'NONE',  ( -3.491481338843133355E-15, 1.224646799147353207E-16, -1.000000000000000000 ) ) ;
#337 = APPROVAL_PERSON_ORGANIZATION ( #193, #214, #114 ) ;
#338 = APPLICATION_PROTOCOL_DEFINITION ( 'international standard', 'config_control_design', 1994, #293 ) ;
#339 = EDGE_LOOP ( 'NONE', ( #254, #271, #73, #229 ) ) ;
#340 = VECTOR ( 'NONE', #10, 1000.000000000000000 ) ;
#341 = DIRECTION ( 'NONE',  ( -3.491481338843133355E-15, 1.224646799147353207E-16, -1.000000000000000000 ) ) ;
#342 = CARTESIAN_POINT ( 'NONE',  ( 3.444704358586562248E-14, -1.259365891909075084E-15, 9.866025403784430381 ) ) ;
#343 = SECURITY_CLASSIFICATION_LEVEL ( 'unclassified' ) ;
#344 = DIRECTION ( 'NONE',  ( -3.491481338843133355E-15, 1.276467311168695266E-16, -1.000000000000000000 ) ) ;
#345 = SHAPE_DEFINITION_REPRESENTATION ( #313, #265 ) ;
#346 = DIRECTION ( 'NONE',  ( 3.491481338843133355E-15, -1.276467311168695266E-16, 1.000000000000000000 ) ) ;
#347 = EDGE_LOOP ( 'NONE', ( #27, #52, #315, #11 ) ) ;
#348 = CLOSED_SHELL ( 'NONE', ( #64, #268, #116, #124, #137, #361, #232, #311 ) ) ;
#349 =( GEOMETRIC_REPRESENTATION_CONTEXT ( 3 ) GLOBAL_UNCERTAINTY_ASSIGNED_CONTEXT ( ( #141 ) ) GLOBAL_UNIT_ASSIGNED_CONTEXT ( ( #209, #142, #104 ) ) REPRESENTATION_CONTEXT ( 'NONE', 'WORKASPACE' ) );
#350 = LOCAL_TIME ( 9, 8, 56.00000000000000000, #34 ) ;
#351 = LINE ( 'NONE', #183, #111 ) ;
#352 = ORIENTED_EDGE ( 'NONE', *, *, #250, .F. ) ;
#353 = EDGE_CURVE ( 'NONE', #140, #243, #227, .T. ) ;
#354 = DIRECTION ( 'NONE',  ( -4.275831445896958607E-31, -1.000000000000000000, -1.224646799147353207E-16 ) ) ;
#355 = EDGE_LOOP ( 'NONE', ( #259, #180 ) ) ;
#356 = DIRECTION ( 'NONE',  ( 3.491481338843133355E-15, -1.224646799147353207E-16, 1.000000000000000000 ) ) ;
#357 = PRODUCT_DEFINITION_FORMATION_WITH_SPECIFIED_SOURCE ( 'ANY', '', #23, .NOT_KNOWN. ) ;
#358 = DIRECTION ( 'NONE',  ( 0.000000000000000000, -1.000000000000000000, 0.000000000000000000 ) ) ;
#359 = DIRECTION ( 'NONE',  ( -4.275831445896958607E-31, -1.000000000000000000, -1.224646799147353207E-16 ) ) ;
#360 = VECTOR ( 'NONE', #91, 1000.000000000000000 ) ;
#361 = ADVANCED_FACE ( 'NONE', ( #138 ), #211, .F. ) ;
#362 = ORIENTED_EDGE ( 'NONE', *, *, #306, .F. ) ;
#363 = PERSON ( 'UNSPECIFIED', 'UNSPECIFIED', 'UNSPECIFIED', ('UNSPECIFIED'), ('UNSPECIFIED'), ('UNSPECIFIED') ) ;
ENDSEC;
END-ISO-10303-21;
