ISO-10303-21;
HEADER;
FILE_DESCRIPTION (( 'STEP AP203' ),
    '1' );
FILE_NAME ('372730.step',
    '2023-03-31T07:08:56',
    ( '' ),
    ( '' ),
    'SwSTEP 2.0',
    'SolidWorks 2022',
    '' );
FILE_SCHEMA (( 'CONFIG_CONTROL_DESIGN' ));
ENDSEC;

DATA;
#1 = FACE_OUTER_BOUND ( 'NONE', #176, .T. ) ;
#2 = AXIS2_PLACEMENT_3D ( 'NONE', #128, #73, #100 ) ;
#3 = AXIS2_PLACEMENT_3D ( 'NONE', #133, #9, #159 ) ;
#4 = LINE ( 'NONE', #231, #50 ) ;
#5 = EDGE_LOOP ( 'NONE', ( #254, #105, #209, #302 ) ) ;
#6 = VERTEX_POINT ( 'NONE', #219 ) ;
#7 = ADVANCED_FACE ( 'NONE', ( #41 ), #68, .F. ) ;
#8 = PRODUCT_RELATED_PRODUCT_CATEGORY ( 'detail', '', ( #21 ) ) ;
#9 = DIRECTION ( 'NONE',  ( -3.491481338843133355E-15, 1.224646799147353207E-16, -1.000000000000000000 ) ) ;
#10 = AXIS2_PLACEMENT_3D ( 'NONE', #64, #223, #30 ) ;
#11 = DIRECTION ( 'NONE',  ( 0.000000000000000000, 1.000000000000000000, 0.000000000000000000 ) ) ;
#12 = VERTEX_POINT ( 'NONE', #125 ) ;
#13 = CIRCLE ( 'NONE', #147, 1.200000000000001066 ) ;
#14 = EDGE_CURVE ( 'NONE', #212, #180, #238, .T. ) ;
#15 = LOCAL_TIME ( 9, 8, 56.00000000000000000, #267 ) ;
#16 =( LENGTH_UNIT ( ) NAMED_UNIT ( * ) SI_UNIT ( .MILLI., .METRE. ) );
#17 = DIRECTION ( 'NONE',  ( 0.000000000000000000, 0.000000000000000000, 1.000000000000000000 ) ) ;
#18 = PRODUCT_DEFINITION ( 'UNKNOWN', '', #279, #242 ) ;
#19 = ORIENTED_EDGE ( 'NONE', *, *, #143, .T. ) ;
#20 = ORIENTED_EDGE ( 'NONE', *, *, #197, .T. ) ;
#21 = PRODUCT ( '372730', '372730', '', ( #285 ) ) ;
#22 = LOCAL_TIME ( 9, 8, 56.00000000000000000, #71 ) ;
#23 = DATE_TIME_ROLE ( 'classification_date' ) ;
#24 = DIRECTION ( 'NONE',  ( -4.275831445896958607E-31, -1.000000000000000000, -1.224646799147353207E-16 ) ) ;
#25 = EDGE_CURVE ( 'NONE', #6, #70, #13, .T. ) ;
#26 = CARTESIAN_POINT ( 'NONE',  ( 1.326762908760390423E-13, -4.653657836759941941E-15, 38.00000000000000000 ) ) ;
#27 = CONICAL_SURFACE ( 'NONE', #55, 1.200000000000001066, 0.7853981633974453924 ) ;
#28 = LINE ( 'NONE', #148, #225 ) ;
#29 = EDGE_CURVE ( 'NONE', #132, #12, #311, .T. ) ;
#30 = DIRECTION ( 'NONE',  ( 4.275831445896958607E-31, 1.000000000000000000, 1.224646799147353207E-16 ) ) ;
#31 = ORIENTED_EDGE ( 'NONE', *, *, #138, .F. ) ;
#32 = ADVANCED_FACE ( 'NONE', ( #90 ), #67, .T. ) ;
#33 = DIRECTION ( 'NONE',  ( -3.491481338843133355E-15, 1.224646799147353207E-16, -1.000000000000000000 ) ) ;
#34 = ORIENTED_EDGE ( 'NONE', *, *, #14, .F. ) ;
#35 = EDGE_LOOP ( 'NONE', ( #259, #297, #37, #62 ) ) ;
#36 = CARTESIAN_POINT ( 'NONE',  ( 7.996404561243755790E-14, -1.500000000000005551, 37.69999999999999574 ) ) ;
#37 = ORIENTED_EDGE ( 'NONE', *, *, #77, .T. ) ;
#38 = AXIS2_PLACEMENT_3D ( 'NONE', #252, #33, #131 ) ;
#39 = DIRECTION ( 'NONE',  ( -3.491481338843133355E-15, 1.224646799147353207E-16, -1.000000000000000000 ) ) ;
#40 =( NAMED_UNIT ( * ) SI_UNIT ( $, .STERADIAN. ) SOLID_ANGLE_UNIT ( ) );
#41 = FACE_OUTER_BOUND ( 'NONE', #205, .T. ) ;
#42 = EDGE_CURVE ( 'NONE', #212, #132, #28, .T. ) ;
#43 = ORIENTED_EDGE ( 'NONE', *, *, #210, .F. ) ;
#44 = LOCAL_TIME ( 9, 8, 56.00000000000000000, #280 ) ;
#45 = CARTESIAN_POINT ( 'NONE',  ( 2.793185071074506684E-14, -9.797174393178825657E-16, 8.000000000000000000 ) ) ;
#46 = CARTESIAN_POINT ( 'NONE',  ( 0.000000000000000000, 0.000000000000000000, 0.000000000000000000 ) ) ;
#47 = APPROVAL_DATE_TIME ( #145, #226 ) ;
#48 = ADVANCED_FACE ( 'NONE', ( #54 ), #124, .T. ) ;
#49 = CARTESIAN_POINT ( 'NONE',  ( 2.793185071074506684E-14, 1.124819836996389237E-32, 8.000000000000000000 ) ) ;
#50 = VECTOR ( 'NONE', #295, 1000.000000000000000 ) ;
#51 = AXIS2_PLACEMENT_3D ( 'NONE', #170, #17, #66 ) ;
#52 = CALENDAR_DATE ( 2023, 31, 3 ) ;
#53 = APPROVAL_STATUS ( 'not_yet_approved' ) ;
#54 = FACE_OUTER_BOUND ( 'NONE', #85, .T. ) ;
#55 = AXIS2_PLACEMENT_3D ( 'NONE', #26, #99, #171 ) ;
#56 = AXIS2_PLACEMENT_3D ( 'NONE', #234, #151, #201 ) ;
#57 = CARTESIAN_POINT ( 'NONE',  ( 2.793185071074506684E-14, 1.499999999999995781, 8.000000000000000000 ) ) ;
#58 = DIRECTION ( 'NONE',  ( -3.491481338843133355E-15, 1.224646799147353207E-16, -1.000000000000000000 ) ) ;
#59 = CARTESIAN_POINT ( 'NONE',  ( 7.996404561243767149E-14, -1.499999999999997780, 8.000000000000000000 ) ) ;
#60 = LINE ( 'NONE', #175, #207 ) ;
#61 = FACE_OUTER_BOUND ( 'NONE', #63, .T. ) ;
#62 = ORIENTED_EDGE ( 'NONE', *, *, #197, .F. ) ;
#63 = EDGE_LOOP ( 'NONE', ( #134, #20 ) ) ;
#64 = CARTESIAN_POINT ( 'NONE',  ( -1.282762315192432113E-30, 4.499324529936545246E-32, -3.673977291304848502E-16 ) ) ;
#65 = VECTOR ( 'NONE', #298, 1000.000000000000000 ) ;
#66 = DIRECTION ( 'NONE',  ( 1.000000000000000000, 0.000000000000000000, 0.000000000000000000 ) ) ;
#67 = CYLINDRICAL_SURFACE ( 'NONE', #101, 1.499999999999998668 ) ;
#68 = PLANE ( 'NONE',  #257 ) ;
#69 = PERSON_AND_ORGANIZATION ( #166, #102 ) ;
#70 = VERTEX_POINT ( 'NONE', #220 ) ;
#71 = COORDINATED_UNIVERSAL_TIME_OFFSET ( 1, 0, .AHEAD. ) ;
#72 = CALENDAR_DATE ( 2023, 31, 3 ) ;
#73 = DIRECTION ( 'NONE',  ( -3.491481338843133355E-15, 1.224646799147353207E-16, -1.000000000000000000 ) ) ;
#74 = DIRECTION ( 'NONE',  ( -3.491481338843133355E-15, 1.224646799147353207E-16, -1.000000000000000000 ) ) ;
#75 = AXIS2_PLACEMENT_3D ( 'NONE', #45, #91, #144 ) ;
#76 = APPROVAL_ROLE ( '' ) ;
#77 = EDGE_CURVE ( 'NONE', #110, #233, #198, .T. ) ;
#78 = PLANE ( 'NONE',  #263 ) ;
#79 = PLANE ( 'NONE',  #168 ) ;
#80 = DIRECTION ( 'NONE',  ( 4.275831445896958607E-31, 1.000000000000000000, 1.224646799147353207E-16 ) ) ;
#81 = ORIENTED_EDGE ( 'NONE', *, *, #42, .T. ) ;
#82 = CARTESIAN_POINT ( 'NONE',  ( 1.316288464743861212E-13, 1.499999999999996447, 37.69999999999999574 ) ) ;
#83 = EDGE_CURVE ( 'NONE', #12, #132, #162, .T. ) ;
#84 = CARTESIAN_POINT ( 'NONE',  ( 0.000000000000000000, 0.000000000000000000, 0.000000000000000000 ) ) ;
#85 = EDGE_LOOP ( 'NONE', ( #155, #19, #156, #136 ) ) ;
#86 = DATE_AND_TIME ( #214, #194 ) ;
#87 = DIRECTION ( 'NONE',  ( -3.491481338843133355E-15, 1.224646799147353207E-16, -1.000000000000000000 ) ) ;
#88 = LOCAL_TIME ( 9, 8, 56.00000000000000000, #149 ) ;
#89 = APPROVAL_DATE_TIME ( #119, #95 ) ;
#90 = FACE_OUTER_BOUND ( 'NONE', #270, .T. ) ;
#91 = DIRECTION ( 'NONE',  ( -3.491481338843133355E-15, 1.224646799147353207E-16, -1.000000000000000000 ) ) ;
#92 = APPROVAL_PERSON_ORGANIZATION ( #290, #226, #76 ) ;
#93 = PERSON_AND_ORGANIZATION_ROLE ( 'creator' ) ;
#94 = ADVANCED_FACE ( 'NONE', ( #243 ), #27, .T. ) ;
#95 = APPROVAL ( #184, 'UNSPECIFIED' ) ;
#96 = AXIS2_PLACEMENT_3D ( 'NONE', #304, #87, #260 ) ;
#97 = DIRECTION ( 'NONE',  ( -3.491481338843133355E-15, 1.224646799147353207E-16, -1.000000000000000000 ) ) ;
#98 = EDGE_CURVE ( 'NONE', #306, #203, #196, .T. ) ;
#99 = DIRECTION ( 'NONE',  ( -3.491481338843133355E-15, 1.224646799147353207E-16, -1.000000000000000000 ) ) ;
#100 = DIRECTION ( 'NONE',  ( 0.000000000000000000, 1.000000000000000000, 0.000000000000000000 ) ) ;
#101 = AXIS2_PLACEMENT_3D ( 'NONE', #46, #165, #262 ) ;
#102 = ORGANIZATION ( 'UNSPECIFIED', 'UNSPECIFIED', '' ) ;
#103 = CARTESIAN_POINT ( 'NONE',  ( 0.000000000000000000, 0.000000000000000000, 0.000000000000000000 ) ) ;
#104 = DIRECTION ( 'NONE',  ( -4.275831445896958607E-31, -1.000000000000000000, -1.224646799147353207E-16 ) ) ;
#105 = ORIENTED_EDGE ( 'NONE', *, *, #14, .T. ) ;
#106 = CYLINDRICAL_SURFACE ( 'NONE', #183, 1.499999999999998668 ) ;
#107 = CIRCLE ( 'NONE', #291, 1.499999999999996669 ) ;
#108 = DIRECTION ( 'NONE',  ( -4.275831445896958607E-31, -1.000000000000000000, -1.224646799147353207E-16 ) ) ;
#109 = CIRCLE ( 'NONE', #3, 1.499999999999996669 ) ;
#110 = VERTEX_POINT ( 'NONE', #57 ) ;
#111 = DIRECTION ( 'NONE',  ( -2.468850131082271655E-15, 0.7071067811865455743, -0.7071067811865493491 ) ) ;
#112 = APPROVAL ( #169, 'UNSPECIFIED' ) ;
#113 = CC_DESIGN_PERSON_AND_ORGANIZATION_ASSIGNMENT ( #142, #93, ( #18 ) ) ;
#114 = MANIFOLD_SOLID_BREP ( 'Corps-Déplacer/Copier1[2]', #213 ) ;
#115 = MANIFOLD_SOLID_BREP ( 'Corps-Déplacer/Copier1[1]', #173 ) ;
#116 = DIRECTION ( 'NONE',  ( 4.275831445896958607E-31, 1.000000000000000000, 1.224646799147353207E-16 ) ) ;
#117 = AXIS2_PLACEMENT_3D ( 'NONE', #289, #150, #249 ) ;
#118 = EDGE_CURVE ( 'NONE', #180, #212, #246, .T. ) ;
#119 = DATE_AND_TIME ( #137, #22 ) ;
#120 = APPROVAL_DATE_TIME ( #308, #112 ) ;
#121 =( NAMED_UNIT ( * ) PLANE_ANGLE_UNIT ( ) SI_UNIT ( $, .RADIAN. ) );
#122 = EDGE_CURVE ( 'NONE', #110, #306, #107, .T. ) ;
#123 = ADVANCED_FACE ( 'NONE', ( #126 ), #106, .T. ) ;
#124 = CONICAL_SURFACE ( 'NONE', #2, 1.200000000000001066, 0.7853981633974453924 ) ;
#125 = CARTESIAN_POINT ( 'NONE',  ( 2.793185071074506684E-14, 1.499999999999995781, 8.000000000000000000 ) ) ;
#126 = FACE_OUTER_BOUND ( 'NONE', #5, .T. ) ;
#127 = PERSON_AND_ORGANIZATION_ROLE ( 'design_supplier' ) ;
#128 = CARTESIAN_POINT ( 'NONE',  ( 1.326762908760390423E-13, -4.653657836759941941E-15, 38.00000000000000000 ) ) ;
#129 = CARTESIAN_POINT ( 'NONE',  ( 2.793185071074506684E-14, 1.124819836996389237E-32, 8.000000000000000000 ) ) ;
#130 = ORIENTED_EDGE ( 'NONE', *, *, #210, .T. ) ;
#131 = DIRECTION ( 'NONE',  ( 4.275831445896958607E-31, 1.000000000000000000, 1.224646799147353207E-16 ) ) ;
#132 = VERTEX_POINT ( 'NONE', #59 ) ;
#133 = CARTESIAN_POINT ( 'NONE',  ( 2.793185071074506684E-14, -9.797174393178825657E-16, 8.000000000000000000 ) ) ;
#134 = ORIENTED_EDGE ( 'NONE', *, *, #154, .T. ) ;
#135 = CC_DESIGN_PERSON_AND_ORGANIZATION_ASSIGNMENT ( #188, #189, ( #21 ) ) ;
#136 = ORIENTED_EDGE ( 'NONE', *, *, #216, .F. ) ;
#137 = CALENDAR_DATE ( 2023, 31, 3 ) ;
#138 = EDGE_CURVE ( 'NONE', #180, #12, #202, .T. ) ;
#139 = CYLINDRICAL_SURFACE ( 'NONE', #178, 1.499999999999996225 ) ;
#140 = DIRECTION ( 'NONE',  ( 0.000000000000000000, 1.000000000000000000, 0.000000000000000000 ) ) ;
#141 = ORIENTED_EDGE ( 'NONE', *, *, #29, .T. ) ;
#142 = PERSON_AND_ORGANIZATION ( #166, #102 ) ;
#143 = EDGE_CURVE ( 'NONE', #70, #212, #4, .T. ) ;
#144 = DIRECTION ( 'NONE',  ( 0.000000000000000000, 1.000000000000000000, 0.000000000000000000 ) ) ;
#145 = DATE_AND_TIME ( #52, #15 ) ;
#146 = CC_DESIGN_PERSON_AND_ORGANIZATION_ASSIGNMENT ( #245, #174, ( #307 ) ) ;
#147 = AXIS2_PLACEMENT_3D ( 'NONE', #281, #286, #140 ) ;
#148 = CARTESIAN_POINT ( 'NONE',  ( 1.836970198721021799E-16, -1.499999999999998668, -1.836970198721034618E-16 ) ) ;
#149 = COORDINATED_UNIVERSAL_TIME_OFFSET ( 1, 0, .AHEAD. ) ;
#150 = DIRECTION ( 'NONE',  ( -3.491481338843133355E-15, 1.224646799147353207E-16, -1.000000000000000000 ) ) ;
#151 = DIRECTION ( 'NONE',  ( -3.491481338843133355E-15, 1.224646799147353207E-16, -1.000000000000000000 ) ) ;
#152 = AXIS2_PLACEMENT_3D ( 'NONE', #193, #58, #313 ) ;
#153 = DIRECTION ( 'NONE',  ( 3.491481338843133355E-15, -1.224646799147353207E-16, 1.000000000000000000 ) ) ;
#154 = EDGE_CURVE ( 'NONE', #233, #203, #292, .T. ) ;
#155 = ORIENTED_EDGE ( 'NONE', *, *, #25, .T. ) ;
#156 = ORIENTED_EDGE ( 'NONE', *, *, #118, .F. ) ;
#157 = ORIENTED_EDGE ( 'NONE', *, *, #122, .T. ) ;
#158 = EDGE_CURVE ( 'NONE', #306, #110, #109, .T. ) ;
#159 = DIRECTION ( 'NONE',  ( 0.000000000000000000, 1.000000000000000000, 0.000000000000000000 ) ) ;
#160 = AXIS2_PLACEMENT_3D ( 'NONE', #276, #273, #11 ) ;
#161 = ORIENTED_EDGE ( 'NONE', *, *, #154, .F. ) ;
#162 = CIRCLE ( 'NONE', #152, 1.499999999999996669 ) ;
#163 = CARTESIAN_POINT ( 'NONE',  ( 0.000000000000000000, 0.000000000000000000, 0.000000000000000000 ) ) ;
#164 = ORIENTED_EDGE ( 'NONE', *, *, #83, .F. ) ;
#165 = DIRECTION ( 'NONE',  ( -3.491481338843133355E-15, 1.224646799147353207E-16, -1.000000000000000000 ) ) ;
#166 = PERSON ( 'UNSPECIFIED', 'UNSPECIFIED', 'UNSPECIFIED', ('UNSPECIFIED'), ('UNSPECIFIED'), ('UNSPECIFIED') ) ;
#167 = APPLICATION_PROTOCOL_DEFINITION ( 'international standard', 'config_control_design', 1994, #309 ) ;
#168 = AXIS2_PLACEMENT_3D ( 'NONE', #177, #153, #108 ) ;
#169 = APPROVAL_STATUS ( 'not_yet_approved' ) ;
#170 = CARTESIAN_POINT ( 'NONE',  ( 0.000000000000000000, 0.000000000000000000, 0.000000000000000000 ) ) ;
#171 = DIRECTION ( 'NONE',  ( 0.000000000000000000, 1.000000000000000000, 0.000000000000000000 ) ) ;
#172 = UNCERTAINTY_MEASURE_WITH_UNIT (LENGTH_MEASURE( 1.000000000000000082E-05 ), #16, 'distance_accuracy_value', 'NONE');
#173 = CLOSED_SHELL ( 'NONE', ( #48, #32, #7, #123, #94, #265 ) ) ;
#174 = PERSON_AND_ORGANIZATION_ROLE ( 'classification_officer' ) ;
#175 = CARTESIAN_POINT ( 'NONE',  ( 1.326762908760390423E-13, 1.199999999999996403, 38.00000000000000000 ) ) ;
#176 = EDGE_LOOP ( 'NONE', ( #266, #235 ) ) ;
#177 = CARTESIAN_POINT ( 'NONE',  ( -6.413811575962160563E-31, 2.249662264968272623E-32, -1.836988645652424251E-16 ) ) ;
#178 = AXIS2_PLACEMENT_3D ( 'NONE', #163, #305, #116 ) ;
#179 = DIRECTION ( 'NONE',  ( 4.275831445896958607E-31, 1.000000000000000000, 1.224646799147353207E-16 ) ) ;
#180 = VERTEX_POINT ( 'NONE', #82 ) ;
#181 = EDGE_LOOP ( 'NONE', ( #230, #43 ) ) ;
#182 = FACE_OUTER_BOUND ( 'NONE', #215, .T. ) ;
#183 = AXIS2_PLACEMENT_3D ( 'NONE', #103, #251, #179 ) ;
#184 = APPROVAL_STATUS ( 'not_yet_approved' ) ;
#185 = CIRCLE ( 'NONE', #160, 1.200000000000001066 ) ;
#186 = PERSON_AND_ORGANIZATION ( #166, #102 ) ;
#187 = CC_DESIGN_PERSON_AND_ORGANIZATION_ASSIGNMENT ( #186, #282, ( #279 ) ) ;
#188 = PERSON_AND_ORGANIZATION ( #166, #102 ) ;
#189 = PERSON_AND_ORGANIZATION_ROLE ( 'design_owner' ) ;
#190 = APPROVAL_PERSON_ORGANIZATION ( #69, #112, #218 ) ;
#191 = DATE_TIME_ROLE ( 'creation_date' ) ;
#192 = DATE_AND_TIME ( #72, #88 ) ;
#193 = CARTESIAN_POINT ( 'NONE',  ( 2.793185071074506684E-14, -9.797174393178825657E-16, 8.000000000000000000 ) ) ;
#194 = LOCAL_TIME ( 9, 8, 56.00000000000000000, #236 ) ;
#195 = ADVANCED_FACE ( 'NONE', ( #182 ), #258, .T. ) ;
#196 = LINE ( 'NONE', #293, #294 ) ;
#197 = EDGE_CURVE ( 'NONE', #203, #233, #272, .T. ) ;
#198 = LINE ( 'NONE', #222, #199 ) ;
#199 = VECTOR ( 'NONE', #97, 1000.000000000000000 ) ;
#200 = CC_DESIGN_PERSON_AND_ORGANIZATION_ASSIGNMENT ( #248, #127, ( #279 ) ) ;
#201 = DIRECTION ( 'NONE',  ( 4.275831445896958607E-31, 1.000000000000000000, 1.224646799147353207E-16 ) ) ;
#202 = LINE ( 'NONE', #204, #65 ) ;
#203 = VERTEX_POINT ( 'NONE', #278 ) ;
#204 = CARTESIAN_POINT ( 'NONE',  ( 6.413747168845432655E-31, 1.499999999999998668, 1.836970198721028208E-16 ) ) ;
#205 = EDGE_LOOP ( 'NONE', ( #232, #141 ) ) ;
#206 = ADVANCED_BREP_SHAPE_REPRESENTATION ( '372730', ( #115, #114, #51 ), #247 ) ;
#207 = VECTOR ( 'NONE', #111, 1000.000000000000114 ) ;
#208 = PLANE ( 'NONE',  #38 ) ;
#209 = ORIENTED_EDGE ( 'NONE', *, *, #138, .T. ) ;
#210 = EDGE_CURVE ( 'NONE', #70, #6, #185, .T. ) ;
#211 = APPLICATION_CONTEXT ( 'configuration controlled 3d designs of mechanical parts and assemblies' ) ;
#212 = VERTEX_POINT ( 'NONE', #36 ) ;
#213 = CLOSED_SHELL ( 'NONE', ( #195, #255, #299, #224 ) ) ;
#214 = CALENDAR_DATE ( 2023, 31, 3 ) ;
#215 = EDGE_LOOP ( 'NONE', ( #157, #288, #161, #229 ) ) ;
#216 = EDGE_CURVE ( 'NONE', #6, #180, #60, .T. ) ;
#217 = CC_DESIGN_DATE_AND_TIME_ASSIGNMENT ( #86, #191, ( #18 ) ) ;
#218 = APPROVAL_ROLE ( '' ) ;
#219 = CARTESIAN_POINT ( 'NONE',  ( 1.326762908760390423E-13, 1.199999999999996403, 38.00000000000000000 ) ) ;
#220 = CARTESIAN_POINT ( 'NONE',  ( 1.323178959930974653E-13, -1.200000000000005507, 38.00000000000000000 ) ) ;
#221 = CC_DESIGN_APPROVAL ( #95, ( #279 ) ) ;
#222 = CARTESIAN_POINT ( 'NONE',  ( 6.413747168845421269E-31, 1.499999999999996225, 1.836970198721025004E-16 ) ) ;
#223 = DIRECTION ( 'NONE',  ( -3.491481338843133355E-15, 1.224646799147353207E-16, -1.000000000000000000 ) ) ;
#224 = ADVANCED_FACE ( 'NONE', ( #1 ), #78, .T. ) ;
#225 = VECTOR ( 'NONE', #74, 1000.000000000000000 ) ;
#226 = APPROVAL ( #53, 'UNSPECIFIED' ) ;
#227 = CC_DESIGN_APPROVAL ( #112, ( #18 ) ) ;
#228 = DIRECTION ( 'NONE',  ( 3.491481338843133355E-15, -1.224646799147353207E-16, 1.000000000000000000 ) ) ;
#229 = ORIENTED_EDGE ( 'NONE', *, *, #77, .F. ) ;
#230 = ORIENTED_EDGE ( 'NONE', *, *, #25, .F. ) ;
#231 = CARTESIAN_POINT ( 'NONE',  ( 1.328232484919367446E-13, -1.200000000000005507, 38.00000000000000000 ) ) ;
#232 = ORIENTED_EDGE ( 'NONE', *, *, #83, .T. ) ;
#233 = VERTEX_POINT ( 'NONE', #296 ) ;
#234 = CARTESIAN_POINT ( 'NONE',  ( -1.282762315192432113E-30, 4.499324529936545246E-32, -3.673977291304848502E-16 ) ) ;
#235 = ORIENTED_EDGE ( 'NONE', *, *, #158, .F. ) ;
#236 = COORDINATED_UNIVERSAL_TIME_OFFSET ( 1, 0, .AHEAD. ) ;
#237 = CC_DESIGN_DATE_AND_TIME_ASSIGNMENT ( #192, #23, ( #307 ) ) ;
#238 = CIRCLE ( 'NONE', #96, 1.500000000000000888 ) ;
#239 = PRODUCT_DEFINITION_SHAPE ( 'NONE', 'NONE',  #18 ) ;
#240 = DIRECTION ( 'NONE',  ( 3.491481338843133355E-15, -1.224646799147353207E-16, 1.000000000000000000 ) ) ;
#241 = DIRECTION ( 'NONE',  ( 0.000000000000000000, 1.000000000000000000, 0.000000000000000000 ) ) ;
#242 = DESIGN_CONTEXT ( 'detailed design', #211, 'design' ) ;
#243 = FACE_OUTER_BOUND ( 'NONE', #274, .T. ) ;
#244 = ORIENTED_EDGE ( 'NONE', *, *, #118, .T. ) ;
#245 = PERSON_AND_ORGANIZATION ( #166, #102 ) ;
#246 = CIRCLE ( 'NONE', #117, 1.500000000000000888 ) ;
#247 =( GEOMETRIC_REPRESENTATION_CONTEXT ( 3 ) GLOBAL_UNCERTAINTY_ASSIGNED_CONTEXT ( ( #172 ) ) GLOBAL_UNIT_ASSIGNED_CONTEXT ( ( #16, #121, #40 ) ) REPRESENTATION_CONTEXT ( 'NONE', 'WORKASPACE' ) );
#248 = PERSON_AND_ORGANIZATION ( #166, #102 ) ;
#249 = DIRECTION ( 'NONE',  ( 0.000000000000000000, 1.000000000000000000, 0.000000000000000000 ) ) ;
#250 = CARTESIAN_POINT ( 'NONE',  ( 2.793185071074506684E-14, -9.797174393178825657E-16, 8.000000000000000000 ) ) ;
#251 = DIRECTION ( 'NONE',  ( -3.491481338843133355E-15, 1.224646799147353207E-16, -1.000000000000000000 ) ) ;
#252 = CARTESIAN_POINT ( 'NONE',  ( 1.326762908760390423E-13, 8.998558695971084067E-33, 38.00000000000000000 ) ) ;
#253 = FACE_OUTER_BOUND ( 'NONE', #181, .T. ) ;
#254 = ORIENTED_EDGE ( 'NONE', *, *, #42, .F. ) ;
#255 = ADVANCED_FACE ( 'NONE', ( #61 ), #79, .F. ) ;
#256 = ORIENTED_EDGE ( 'NONE', *, *, #143, .F. ) ;
#257 = AXIS2_PLACEMENT_3D ( 'NONE', #49, #240, #24 ) ;
#258 = CYLINDRICAL_SURFACE ( 'NONE', #284, 1.499999999999996225 ) ;
#259 = ORIENTED_EDGE ( 'NONE', *, *, #98, .F. ) ;
#260 = DIRECTION ( 'NONE',  ( 0.000000000000000000, 1.000000000000000000, 0.000000000000000000 ) ) ;
#261 = APPLICATION_PROTOCOL_DEFINITION ( 'international standard', 'config_control_design', 1994, #211 ) ;
#262 = DIRECTION ( 'NONE',  ( 4.275831445896958607E-31, 1.000000000000000000, 1.224646799147353207E-16 ) ) ;
#263 = AXIS2_PLACEMENT_3D ( 'NONE', #129, #228, #104 ) ;
#264 = CARTESIAN_POINT ( 'NONE',  ( 1.414962237524462352E-14, -1.499999999999997780, 8.000000000000000000 ) ) ;
#265 = ADVANCED_FACE ( 'NONE', ( #253 ), #208, .F. ) ;
#266 = ORIENTED_EDGE ( 'NONE', *, *, #122, .F. ) ;
#267 = COORDINATED_UNIVERSAL_TIME_OFFSET ( 1, 0, .AHEAD. ) ;
#268 = DIRECTION ( 'NONE',  ( -3.491481338843133355E-15, 1.224646799147353207E-16, -1.000000000000000000 ) ) ;
#269 = CC_DESIGN_APPROVAL ( #226, ( #307 ) ) ;
#270 = EDGE_LOOP ( 'NONE', ( #244, #81, #164, #31 ) ) ;
#271 = DIRECTION ( 'NONE',  ( -3.491481338843133355E-15, 1.224646799147353207E-16, -1.000000000000000000 ) ) ;
#272 = CIRCLE ( 'NONE', #10, 1.499999999999995559 ) ;
#273 = DIRECTION ( 'NONE',  ( -3.491481338843133355E-15, 1.224646799147353207E-16, -1.000000000000000000 ) ) ;
#274 = EDGE_LOOP ( 'NONE', ( #256, #130, #277, #34 ) ) ;
#275 = CC_DESIGN_SECURITY_CLASSIFICATION ( #307, ( #279 ) ) ;
#276 = CARTESIAN_POINT ( 'NONE',  ( 1.326762908760390423E-13, -4.653657836759941941E-15, 38.00000000000000000 ) ) ;
#277 = ORIENTED_EDGE ( 'NONE', *, *, #216, .T. ) ;
#278 = CARTESIAN_POINT ( 'NONE',  ( 1.414962237524463299E-14, -1.499999999999995559, -5.510947490026367283E-16 ) ) ;
#279 = PRODUCT_DEFINITION_FORMATION_WITH_SPECIFIED_SOURCE ( 'ANY', '', #21, .NOT_KNOWN. ) ;
#280 = COORDINATED_UNIVERSAL_TIME_OFFSET ( 1, 0, .AHEAD. ) ;
#281 = CARTESIAN_POINT ( 'NONE',  ( 1.326762908760390423E-13, -4.653657836759941941E-15, 38.00000000000000000 ) ) ;
#282 = PERSON_AND_ORGANIZATION_ROLE ( 'creator' ) ;
#283 = FACE_OUTER_BOUND ( 'NONE', #35, .T. ) ;
#284 = AXIS2_PLACEMENT_3D ( 'NONE', #84, #39, #80 ) ;
#285 = MECHANICAL_CONTEXT ( 'NONE', #309, 'mechanical' ) ;
#286 = DIRECTION ( 'NONE',  ( -3.491481338843133355E-15, 1.224646799147353207E-16, -1.000000000000000000 ) ) ;
#287 = PERSON_AND_ORGANIZATION ( #166, #102 ) ;
#288 = ORIENTED_EDGE ( 'NONE', *, *, #98, .T. ) ;
#289 = CARTESIAN_POINT ( 'NONE',  ( 1.316288464743861212E-13, -4.616918432785521081E-15, 37.69999999999999574 ) ) ;
#290 = PERSON_AND_ORGANIZATION ( #166, #102 ) ;
#291 = AXIS2_PLACEMENT_3D ( 'NONE', #250, #268, #241 ) ;
#292 = CIRCLE ( 'NONE', #56, 1.499999999999995559 ) ;
#293 = CARTESIAN_POINT ( 'NONE',  ( 1.836970198721018841E-16, -1.499999999999996225, -1.836970198721031167E-16 ) ) ;
#294 = VECTOR ( 'NONE', #271, 1000.000000000000000 ) ;
#295 = DIRECTION ( 'NONE',  ( -2.382254525458723780E-15, -0.7071067811865453523, -0.7071067811865496822 ) ) ;
#296 = CARTESIAN_POINT ( 'NONE',  ( -6.413875983078902484E-31, 1.499999999999995559, -1.837007092583824238E-16 ) ) ;
#297 = ORIENTED_EDGE ( 'NONE', *, *, #158, .T. ) ;
#298 = DIRECTION ( 'NONE',  ( -3.491481338843133355E-15, 1.224646799147353207E-16, -1.000000000000000000 ) ) ;
#299 = ADVANCED_FACE ( 'NONE', ( #283 ), #139, .T. ) ;
#300 = APPROVAL_PERSON_ORGANIZATION ( #287, #95, #303 ) ;
#301 = CALENDAR_DATE ( 2023, 31, 3 ) ;
#302 = ORIENTED_EDGE ( 'NONE', *, *, #29, .F. ) ;
#303 = APPROVAL_ROLE ( '' ) ;
#304 = CARTESIAN_POINT ( 'NONE',  ( 1.316288464743861212E-13, -4.616918432785521081E-15, 37.69999999999999574 ) ) ;
#305 = DIRECTION ( 'NONE',  ( -3.491481338843133355E-15, 1.224646799147353207E-16, -1.000000000000000000 ) ) ;
#306 = VERTEX_POINT ( 'NONE', #264 ) ;
#307 = SECURITY_CLASSIFICATION ( '', '', #312 ) ;
#308 = DATE_AND_TIME ( #301, #44 ) ;
#309 = APPLICATION_CONTEXT ( 'configuration controlled 3d designs of mechanical parts and assemblies' ) ;
#310 = SHAPE_DEFINITION_REPRESENTATION ( #239, #206 ) ;
#311 = CIRCLE ( 'NONE', #75, 1.499999999999996669 ) ;
#312 = SECURITY_CLASSIFICATION_LEVEL ( 'unclassified' ) ;
#313 = DIRECTION ( 'NONE',  ( 0.000000000000000000, 1.000000000000000000, 0.000000000000000000 ) ) ;
ENDSEC;
END-ISO-10303-21;
