ISO-10303-21;
HEADER;
FILE_DESCRIPTION (( 'STEP AP203' ),
    '1' );
FILE_NAME ('372729.step',
    '2023-03-31T07:08:55',
    ( '' ),
    ( '' ),
    'SwSTEP 2.0',
    'SolidWorks 2022',
    '' );
FILE_SCHEMA (( 'CONFIG_CONTROL_DESIGN' ));
ENDSEC;

DATA;
#1 = DIRECTION ( 'NONE',  ( 0.000000000000000000, 1.000000000000000000, 0.000000000000000000 ) ) ;
#2 = CIRCLE ( 'NONE', #87, 1.199999999999999289 ) ;
#3 = CYLINDRICAL_SURFACE ( 'NONE', #57, 1.499999999999996225 ) ;
#4 = APPROVAL_DATE_TIME ( #130, #218 ) ;
#5 = EDGE_CURVE ( 'NONE', #113, #229, #312, .T. ) ;
#6 = MANIFOLD_SOLID_BREP ( 'Corps-Déplacer/Copier1[1]', #88 ) ;
#7 = LINE ( 'NONE', #149, #207 ) ;
#8 = CIRCLE ( 'NONE', #292, 1.499999999999995559 ) ;
#9 = LOCAL_TIME ( 9, 8, 55.00000000000000000, #267 ) ;
#10 = CARTESIAN_POINT ( 'NONE',  ( 1.047444401652940007E-13, -3.673940397442059178E-15, 30.00000000000000000 ) ) ;
#11 = ORIENTED_EDGE ( 'NONE', *, *, #141, .F. ) ;
#12 = APPLICATION_PROTOCOL_DEFINITION ( 'international standard', 'config_control_design', 1994, #243 ) ;
#13 = CARTESIAN_POINT ( 'NONE',  ( 6.413747168845421269E-31, 1.499999999999996225, 1.836970198721025004E-16 ) ) ;
#14 = AXIS2_PLACEMENT_3D ( 'NONE', #300, #213, #305 ) ;
#15 = CARTESIAN_POINT ( 'NONE',  ( 6.599812025706515069E-14, -1.499999999999997558, 8.000000000000000000 ) ) ;
#16 = ADVANCED_BREP_SHAPE_REPRESENTATION ( '372729', ( #6, #313, #237 ), #167 ) ;
#17 = APPROVAL ( #192, 'UNSPECIFIED' ) ;
#18 = CARTESIAN_POINT ( 'NONE',  ( 1.043860452823524111E-13, -1.200000000000002842, 30.00000000000000000 ) ) ;
#19 = EDGE_LOOP ( 'NONE', ( #203, #272, #53, #11 ) ) ;
#20 = CIRCLE ( 'NONE', #142, 1.499999999999996669 ) ;
#21 = PERSON_AND_ORGANIZATION ( #50, #242 ) ;
#22 = ORIENTED_EDGE ( 'NONE', *, *, #123, .T. ) ;
#23 = PERSON_AND_ORGANIZATION ( #50, #242 ) ;
#24 = DIRECTION ( 'NONE',  ( -2.382254525458723780E-15, -0.7071067811865453523, -0.7071067811865496822 ) ) ;
#25 = COORDINATED_UNIVERSAL_TIME_OFFSET ( 1, 0, .AHEAD. ) ;
#26 = ORIENTED_EDGE ( 'NONE', *, *, #278, .F. ) ;
#27 = CALENDAR_DATE ( 2023, 31, 3 ) ;
#28 = CYLINDRICAL_SURFACE ( 'NONE', #111, 1.499999999999997780 ) ;
#29 = VERTEX_POINT ( 'NONE', #148 ) ;
#30 = DIRECTION ( 'NONE',  ( -3.491481338843133355E-15, 1.224646799147353207E-16, -1.000000000000000000 ) ) ;
#31 = DIRECTION ( 'NONE',  ( -2.468850131082271655E-15, 0.7071067811865455743, -0.7071067811865493491 ) ) ;
#32 = CC_DESIGN_APPROVAL ( #17, ( #73 ) ) ;
#33 = LINE ( 'NONE', #178, #116 ) ;
#34 = CYLINDRICAL_SURFACE ( 'NONE', #150, 1.499999999999997780 ) ;
#35 = EDGE_LOOP ( 'NONE', ( #240, #210, #285, #26 ) ) ;
#36 = ORIENTED_EDGE ( 'NONE', *, *, #231, .F. ) ;
#37 = EDGE_LOOP ( 'NONE', ( #39, #138, #120, #280 ) ) ;
#38 = DATE_AND_TIME ( #118, #283 ) ;
#39 = ORIENTED_EDGE ( 'NONE', *, *, #182, .T. ) ;
#40 = AXIS2_PLACEMENT_3D ( 'NONE', #251, #228, #105 ) ;
#41 = PERSON_AND_ORGANIZATION_ROLE ( 'creator' ) ;
#42 = PERSON_AND_ORGANIZATION_ROLE ( 'design_supplier' ) ;
#43 = DIRECTION ( 'NONE',  ( -3.491481338843133355E-15, 1.224646799147353207E-16, -1.000000000000000000 ) ) ;
#44 = CIRCLE ( 'NONE', #309, 1.499999999999996669 ) ;
#45 = FACE_OUTER_BOUND ( 'NONE', #37, .T. ) ;
#46 = ORIENTED_EDGE ( 'NONE', *, *, #134, .F. ) ;
#47 = DIRECTION ( 'NONE',  ( -3.491481338843133355E-15, 1.224646799147353207E-16, -1.000000000000000000 ) ) ;
#48 = DIRECTION ( 'NONE',  ( -4.275831445896958607E-31, -1.000000000000000000, -1.224646799147353207E-16 ) ) ;
#49 = CARTESIAN_POINT ( 'NONE',  ( 0.000000000000000000, 0.000000000000000000, 0.000000000000000000 ) ) ;
#50 = PERSON ( 'UNSPECIFIED', 'UNSPECIFIED', 'UNSPECIFIED', ('UNSPECIFIED'), ('UNSPECIFIED'), ('UNSPECIFIED') ) ;
#51 = CARTESIAN_POINT ( 'NONE',  ( 1.036969957636410417E-13, -3.637200993467639107E-15, 29.69999999999999574 ) ) ;
#52 = CIRCLE ( 'NONE', #235, 1.499999999999999112 ) ;
#53 = ORIENTED_EDGE ( 'NONE', *, *, #134, .T. ) ;
#54 = CC_DESIGN_PERSON_AND_ORGANIZATION_ASSIGNMENT ( #67, #42, ( #71 ) ) ;
#55 = CARTESIAN_POINT ( 'NONE',  ( 2.793185071074506684E-14, -9.797174393178825657E-16, 8.000000000000000000 ) ) ;
#56 = EDGE_LOOP ( 'NONE', ( #301, #220 ) ) ;
#57 = AXIS2_PLACEMENT_3D ( 'NONE', #74, #297, #248 ) ;
#58 = CONICAL_SURFACE ( 'NONE', #143, 1.199999999999999289, 0.7853981633974453924 ) ;
#59 = VECTOR ( 'NONE', #190, 1000.000000000000000 ) ;
#60 = AXIS2_PLACEMENT_3D ( 'NONE', #291, #114, #217 ) ;
#61 = FACE_OUTER_BOUND ( 'NONE', #145, .T. ) ;
#62 = ORIENTED_EDGE ( 'NONE', *, *, #128, .F. ) ;
#63 = DIRECTION ( 'NONE',  ( -3.491481338843133355E-15, 1.224646799147353207E-16, -1.000000000000000000 ) ) ;
#64 = DATE_TIME_ROLE ( 'creation_date' ) ;
#65 = VERTEX_POINT ( 'NONE', #93 ) ;
#66 = VECTOR ( 'NONE', #279, 1000.000000000000000 ) ;
#67 = PERSON_AND_ORGANIZATION ( #50, #242 ) ;
#68 = CARTESIAN_POINT ( 'NONE',  ( 2.793185071074506684E-14, -9.797174393178825657E-16, 8.000000000000000000 ) ) ;
#69 = DATE_TIME_ROLE ( 'classification_date' ) ;
#70 = CARTESIAN_POINT ( 'NONE',  ( 0.000000000000000000, 0.000000000000000000, 0.000000000000000000 ) ) ;
#71 = PRODUCT_DEFINITION_FORMATION_WITH_SPECIFIED_SOURCE ( 'ANY', '', #254, .NOT_KNOWN. ) ;
#72 = DIRECTION ( 'NONE',  ( -3.491481338843133355E-15, 1.224646799147353207E-16, -1.000000000000000000 ) ) ;
#73 = PRODUCT_DEFINITION ( 'UNKNOWN', '', #71, #121 ) ;
#74 = CARTESIAN_POINT ( 'NONE',  ( 0.000000000000000000, 0.000000000000000000, 0.000000000000000000 ) ) ;
#75 = FACE_OUTER_BOUND ( 'NONE', #81, .T. ) ;
#76 = LOCAL_TIME ( 9, 8, 55.00000000000000000, #146 ) ;
#77 = CARTESIAN_POINT ( 'NONE',  ( 2.793185071074506684E-14, -9.797174393178825657E-16, 8.000000000000000000 ) ) ;
#78 = EDGE_CURVE ( 'NONE', #245, #83, #165, .T. ) ;
#79 = CYLINDRICAL_SURFACE ( 'NONE', #40, 1.499999999999996225 ) ;
#80 = ORIENTED_EDGE ( 'NONE', *, *, #141, .T. ) ;
#81 = EDGE_LOOP ( 'NONE', ( #255, #261, #132, #135 ) ) ;
#82 = PLANE ( 'NONE',  #232 ) ;
#83 = VERTEX_POINT ( 'NONE', #263 ) ;
#84 = VERTEX_POINT ( 'NONE', #92 ) ;
#85 = ADVANCED_FACE ( 'NONE', ( #239 ), #265, .T. ) ;
#86 = EDGE_CURVE ( 'NONE', #84, #113, #119, .T. ) ;
#87 = AXIS2_PLACEMENT_3D ( 'NONE', #10, #30, #295 ) ;
#88 = CLOSED_SHELL ( 'NONE', ( #269, #97, #274, #266, #85, #223 ) ) ;
#89 = PERSON_AND_ORGANIZATION ( #50, #242 ) ;
#90 = ORIENTED_EDGE ( 'NONE', *, *, #164, .F. ) ;
#91 = PERSON_AND_ORGANIZATION ( #50, #242 ) ;
#92 = CARTESIAN_POINT ( 'NONE',  ( 2.793185071074506684E-14, 1.499999999999995559, 8.000000000000000000 ) ) ;
#93 = CARTESIAN_POINT ( 'NONE',  ( 1.036969957636410417E-13, 1.499999999999995559, 29.69999999999999574 ) ) ;
#94 = AXIS2_PLACEMENT_3D ( 'NONE', #275, #293, #221 ) ;
#95 = APPROVAL_PERSON_ORGANIZATION ( #91, #218, #227 ) ;
#96 = DIRECTION ( 'NONE',  ( -3.491481338843133355E-15, 1.224646799147353207E-16, -1.000000000000000000 ) ) ;
#97 = ADVANCED_FACE ( 'NONE', ( #45 ), #28, .T. ) ;
#98 = APPROVAL_STATUS ( 'not_yet_approved' ) ;
#99 = CARTESIAN_POINT ( 'NONE',  ( 1.047444401652940007E-13, 1.199999999999995515, 30.00000000000000000 ) ) ;
#100 = APPROVAL ( #289, 'UNSPECIFIED' ) ;
#101 = CARTESIAN_POINT ( 'NONE',  ( -6.413803915257459741E-31, 2.249659577954773294E-32, -1.836986451539394062E-16 ) ) ;
#102 = AXIS2_PLACEMENT_3D ( 'NONE', #51, #247, #271 ) ;
#103 = FACE_OUTER_BOUND ( 'NONE', #288, .T. ) ;
#104 = AXIS2_PLACEMENT_3D ( 'NONE', #68, #43, #268 ) ;
#105 = DIRECTION ( 'NONE',  ( 4.275831445896958607E-31, 1.000000000000000000, 1.224646799147353207E-16 ) ) ;
#106 = ADVANCED_FACE ( 'NONE', ( #103 ), #125, .F. ) ;
#107 = EDGE_CURVE ( 'NONE', #229, #29, #8, .T. ) ;
#108 = CARTESIAN_POINT ( 'NONE',  ( 1.414962237524463299E-14, -1.499999999999995559, -5.510943101800306413E-16 ) ) ;
#109 = DIRECTION ( 'NONE',  ( -3.491481338843133355E-15, 1.224646799147353207E-16, -1.000000000000000000 ) ) ;
#110 = FACE_OUTER_BOUND ( 'NONE', #56, .T. ) ;
#111 = AXIS2_PLACEMENT_3D ( 'NONE', #49, #47, #153 ) ;
#112 = PERSON_AND_ORGANIZATION_ROLE ( 'design_owner' ) ;
#113 = VERTEX_POINT ( 'NONE', #249 ) ;
#114 = DIRECTION ( 'NONE',  ( -3.491481338843133355E-15, 1.224646799147353207E-16, -1.000000000000000000 ) ) ;
#115 = EDGE_CURVE ( 'NONE', #199, #245, #152, .T. ) ;
#116 = VECTOR ( 'NONE', #63, 1000.000000000000000 ) ;
#117 = VECTOR ( 'NONE', #260, 1000.000000000000000 ) ;
#118 = CALENDAR_DATE ( 2023, 31, 3 ) ;
#119 = CIRCLE ( 'NONE', #104, 1.499999999999996669 ) ;
#120 = ORIENTED_EDGE ( 'NONE', *, *, #139, .F. ) ;
#121 = DESIGN_CONTEXT ( 'detailed design', #170, 'design' ) ;
#122 = APPROVAL_DATE_TIME ( #38, #17 ) ;
#123 = EDGE_CURVE ( 'NONE', #29, #229, #184, .T. ) ;
#124 = AXIS2_PLACEMENT_3D ( 'NONE', #258, #109, #136 ) ;
#125 = PLANE ( 'NONE',  #222 ) ;
#126 = ORIENTED_EDGE ( 'NONE', *, *, #78, .T. ) ;
#127 = DIRECTION ( 'NONE',  ( 4.275831445896958607E-31, 1.000000000000000000, 1.224646799147353207E-16 ) ) ;
#128 = EDGE_CURVE ( 'NONE', #215, #225, #44, .T. ) ;
#129 = CARTESIAN_POINT ( 'NONE',  ( -1.282760783051491948E-30, 4.499319155909546587E-32, -3.673972903078788124E-16 ) ) ;
#130 = DATE_AND_TIME ( #27, #298 ) ;
#131 = APPROVAL_PERSON_ORGANIZATION ( #140, #100, #147 ) ;
#132 = ORIENTED_EDGE ( 'NONE', *, *, #278, .T. ) ;
#133 =( NAMED_UNIT ( * ) PLANE_ANGLE_UNIT ( ) SI_UNIT ( $, .RADIAN. ) );
#134 = EDGE_CURVE ( 'NONE', #199, #65, #7, .T. ) ;
#135 = ORIENTED_EDGE ( 'NONE', *, *, #107, .F. ) ;
#136 = DIRECTION ( 'NONE',  ( 4.275831445896958607E-31, 1.000000000000000000, 1.224646799147353207E-16 ) ) ;
#137 = DIRECTION ( 'NONE',  ( -4.275831445896958607E-31, -1.000000000000000000, -1.224646799147353207E-16 ) ) ;
#138 = ORIENTED_EDGE ( 'NONE', *, *, #233, .T. ) ;
#139 = EDGE_CURVE ( 'NONE', #225, #215, #20, .T. ) ;
#140 = PERSON_AND_ORGANIZATION ( #50, #242 ) ;
#141 = EDGE_CURVE ( 'NONE', #83, #65, #52, .T. ) ;
#142 = AXIS2_PLACEMENT_3D ( 'NONE', #77, #72, #197 ) ;
#143 = AXIS2_PLACEMENT_3D ( 'NONE', #162, #204, #181 ) ;
#144 = SECURITY_CLASSIFICATION_LEVEL ( 'unclassified' ) ;
#145 = EDGE_LOOP ( 'NONE', ( #157, #80, #257, #62 ) ) ;
#146 = COORDINATED_UNIVERSAL_TIME_OFFSET ( 1, 0, .AHEAD. ) ;
#147 = APPROVAL_ROLE ( '' ) ;
#148 = CARTESIAN_POINT ( 'NONE',  ( -6.413860661669501715E-31, 1.499999999999995559, -1.837002704357763860E-16 ) ) ;
#149 = CARTESIAN_POINT ( 'NONE',  ( 1.047444401652940007E-13, 1.199999999999995515, 30.00000000000000000 ) ) ;
#150 = AXIS2_PLACEMENT_3D ( 'NONE', #282, #208, #281 ) ;
#151 = CARTESIAN_POINT ( 'NONE',  ( 1.036969957636410417E-13, -3.637200993467639107E-15, 29.69999999999999574 ) ) ;
#152 = CIRCLE ( 'NONE', #94, 1.199999999999999289 ) ;
#153 = DIRECTION ( 'NONE',  ( 4.275831445896959482E-31, 1.000000000000000000, 1.224646799147353207E-16 ) ) ;
#154 = CC_DESIGN_APPROVAL ( #100, ( #71 ) ) ;
#155 = AXIS2_PLACEMENT_3D ( 'NONE', #129, #200, #127 ) ;
#156 =( LENGTH_UNIT ( ) NAMED_UNIT ( * ) SI_UNIT ( .MILLI., .METRE. ) );
#157 = ORIENTED_EDGE ( 'NONE', *, *, #233, .F. ) ;
#158 =( NAMED_UNIT ( * ) SI_UNIT ( $, .STERADIAN. ) SOLID_ANGLE_UNIT ( ) );
#159 = ORIENTED_EDGE ( 'NONE', *, *, #86, .F. ) ;
#160 = FACE_OUTER_BOUND ( 'NONE', #236, .T. ) ;
#161 = CC_DESIGN_SECURITY_CLASSIFICATION ( #195, ( #71 ) ) ;
#162 = CARTESIAN_POINT ( 'NONE',  ( 1.047444401652940007E-13, -3.673940397442059178E-15, 30.00000000000000000 ) ) ;
#163 = DIRECTION ( 'NONE',  ( -3.491481338843133355E-15, 1.224646799147353207E-16, -1.000000000000000000 ) ) ;
#164 = EDGE_CURVE ( 'NONE', #245, #199, #2, .T. ) ;
#165 = LINE ( 'NONE', #194, #202 ) ;
#166 = AXIS2_PLACEMENT_3D ( 'NONE', #55, #163, #253 ) ;
#167 =( GEOMETRIC_REPRESENTATION_CONTEXT ( 3 ) GLOBAL_UNCERTAINTY_ASSIGNED_CONTEXT ( ( #306 ) ) GLOBAL_UNIT_ASSIGNED_CONTEXT ( ( #156, #133, #158 ) ) REPRESENTATION_CONTEXT ( 'NONE', 'WORKASPACE' ) );
#168 = CLOSED_SHELL ( 'NONE', ( #196, #106, #188, #276 ) ) ;
#169 = PERSON_AND_ORGANIZATION_ROLE ( 'classification_officer' ) ;
#170 = APPLICATION_CONTEXT ( 'configuration controlled 3d designs of mechanical parts and assemblies' ) ;
#171 = CC_DESIGN_DATE_AND_TIME_ASSIGNMENT ( #290, #69, ( #195 ) ) ;
#172 = COORDINATED_UNIVERSAL_TIME_OFFSET ( 1, 0, .AHEAD. ) ;
#173 = CC_DESIGN_PERSON_AND_ORGANIZATION_ASSIGNMENT ( #21, #112, ( #254 ) ) ;
#174 = DIRECTION ( 'NONE',  ( 0.000000000000000000, 1.000000000000000000, 0.000000000000000000 ) ) ;
#175 = ORIENTED_EDGE ( 'NONE', *, *, #115, .T. ) ;
#176 = DIRECTION ( 'NONE',  ( -3.491481338843133355E-15, 1.224646799147353207E-16, -1.000000000000000000 ) ) ;
#177 = FACE_OUTER_BOUND ( 'NONE', #35, .T. ) ;
#178 = CARTESIAN_POINT ( 'NONE',  ( 6.413747168845429152E-31, 1.499999999999997780, 1.836970198721027222E-16 ) ) ;
#179 = CIRCLE ( 'NONE', #102, 1.499999999999999112 ) ;
#180 = PLANE ( 'NONE',  #124 ) ;
#181 = DIRECTION ( 'NONE',  ( 0.000000000000000000, 1.000000000000000000, 0.000000000000000000 ) ) ;
#182 = EDGE_CURVE ( 'NONE', #65, #83, #179, .T. ) ;
#183 = LINE ( 'NONE', #284, #66 ) ;
#184 = CIRCLE ( 'NONE', #155, 1.499999999999995559 ) ;
#185 = APPROVAL_PERSON_ORGANIZATION ( #89, #17, #241 ) ;
#186 = DIRECTION ( 'NONE',  ( 3.491481338843133355E-15, -1.224646799147353207E-16, 1.000000000000000000 ) ) ;
#187 = DIRECTION ( 'NONE',  ( 1.000000000000000000, 0.000000000000000000, 0.000000000000000000 ) ) ;
#188 = ADVANCED_FACE ( 'NONE', ( #75 ), #3, .T. ) ;
#189 = PERSON_AND_ORGANIZATION ( #50, #242 ) ;
#190 = DIRECTION ( 'NONE',  ( -3.491481338843133355E-15, 1.224646799147353207E-16, -1.000000000000000000 ) ) ;
#191 = PERSON_AND_ORGANIZATION ( #50, #242 ) ;
#192 = APPROVAL_STATUS ( 'not_yet_approved' ) ;
#193 = CARTESIAN_POINT ( 'NONE',  ( 1.836970198721018841E-16, -1.499999999999996225, -1.836970198721031167E-16 ) ) ;
#194 = CARTESIAN_POINT ( 'NONE',  ( 1.048913977811916904E-13, -1.200000000000002842, 30.00000000000000000 ) ) ;
#195 = SECURITY_CLASSIFICATION ( '', '', #144 ) ;
#196 = ADVANCED_FACE ( 'NONE', ( #177 ), #79, .T. ) ;
#197 = DIRECTION ( 'NONE',  ( 0.000000000000000000, 1.000000000000000000, 0.000000000000000000 ) ) ;
#198 = DIRECTION ( 'NONE',  ( 3.491481338843133355E-15, -1.224646799147353207E-16, 1.000000000000000000 ) ) ;
#199 = VERTEX_POINT ( 'NONE', #99 ) ;
#200 = DIRECTION ( 'NONE',  ( -3.491481338843133355E-15, 1.224646799147353207E-16, -1.000000000000000000 ) ) ;
#201 = CARTESIAN_POINT ( 'NONE',  ( -1.282760783051491948E-30, 4.499319155909546587E-32, -3.673972903078788124E-16 ) ) ;
#202 = VECTOR ( 'NONE', #24, 1000.000000000000000 ) ;
#203 = ORIENTED_EDGE ( 'NONE', *, *, #78, .F. ) ;
#204 = DIRECTION ( 'NONE',  ( -3.491481338843133355E-15, 1.224646799147353207E-16, -1.000000000000000000 ) ) ;
#205 = CC_DESIGN_PERSON_AND_ORGANIZATION_ASSIGNMENT ( #23, #169, ( #195 ) ) ;
#206 = PRODUCT_DEFINITION_SHAPE ( 'NONE', 'NONE',  #73 ) ;
#207 = VECTOR ( 'NONE', #31, 1000.000000000000114 ) ;
#208 = DIRECTION ( 'NONE',  ( -3.491481338843133355E-15, 1.224646799147353207E-16, -1.000000000000000000 ) ) ;
#209 = LOCAL_TIME ( 9, 8, 55.00000000000000000, #25 ) ;
#210 = ORIENTED_EDGE ( 'NONE', *, *, #5, .T. ) ;
#211 = CARTESIAN_POINT ( 'NONE',  ( 2.793185071074506684E-14, 1.499999999999995559, 8.000000000000000000 ) ) ;
#212 = EDGE_CURVE ( 'NONE', #65, #225, #33, .T. ) ;
#213 = DIRECTION ( 'NONE',  ( 3.491481338843133355E-15, -1.224646799147353207E-16, 1.000000000000000000 ) ) ;
#214 = APPLICATION_PROTOCOL_DEFINITION ( 'international standard', 'config_control_design', 1994, #170 ) ;
#215 = VERTEX_POINT ( 'NONE', #15 ) ;
#216 = CALENDAR_DATE ( 2023, 31, 3 ) ;
#217 = DIRECTION ( 'NONE',  ( 0.000000000000000000, 1.000000000000000000, 0.000000000000000000 ) ) ;
#218 = APPROVAL ( #98, 'UNSPECIFIED' ) ;
#219 = PERSON_AND_ORGANIZATION_ROLE ( 'creator' ) ;
#220 = ORIENTED_EDGE ( 'NONE', *, *, #128, .T. ) ;
#221 = DIRECTION ( 'NONE',  ( 0.000000000000000000, 1.000000000000000000, 0.000000000000000000 ) ) ;
#222 = AXIS2_PLACEMENT_3D ( 'NONE', #101, #198, #48 ) ;
#223 = ADVANCED_FACE ( 'NONE', ( #303 ), #180, .F. ) ;
#224 = DIRECTION ( 'NONE',  ( 4.275831445896958607E-31, 1.000000000000000000, 1.224646799147353207E-16 ) ) ;
#225 = VERTEX_POINT ( 'NONE', #211 ) ;
#226 = DIRECTION ( 'NONE',  ( -3.491481338843133355E-15, 1.224646799147353207E-16, -1.000000000000000000 ) ) ;
#227 = APPROVAL_ROLE ( '' ) ;
#228 = DIRECTION ( 'NONE',  ( -3.491481338843133355E-15, 1.224646799147353207E-16, -1.000000000000000000 ) ) ;
#229 = VERTEX_POINT ( 'NONE', #108 ) ;
#230 = CARTESIAN_POINT ( 'NONE',  ( 2.793185071074506684E-14, 1.124819836996388964E-32, 8.000000000000000000 ) ) ;
#231 = EDGE_CURVE ( 'NONE', #113, #84, #299, .T. ) ;
#232 = AXIS2_PLACEMENT_3D ( 'NONE', #230, #186, #137 ) ;
#233 = EDGE_CURVE ( 'NONE', #83, #215, #183, .T. ) ;
#234 = MECHANICAL_CONTEXT ( 'NONE', #243, 'mechanical' ) ;
#235 = AXIS2_PLACEMENT_3D ( 'NONE', #151, #176, #174 ) ;
#236 = EDGE_LOOP ( 'NONE', ( #175, #126, #252, #46 ) ) ;
#237 = AXIS2_PLACEMENT_3D ( 'NONE', #70, #238, #187 ) ;
#238 = DIRECTION ( 'NONE',  ( 0.000000000000000000, 0.000000000000000000, 1.000000000000000000 ) ) ;
#239 = FACE_OUTER_BOUND ( 'NONE', #19, .T. ) ;
#240 = ORIENTED_EDGE ( 'NONE', *, *, #86, .T. ) ;
#241 = APPROVAL_ROLE ( '' ) ;
#242 = ORGANIZATION ( 'UNSPECIFIED', 'UNSPECIFIED', '' ) ;
#243 = APPLICATION_CONTEXT ( 'configuration controlled 3d designs of mechanical parts and assemblies' ) ;
#244 = APPROVAL_DATE_TIME ( #262, #100 ) ;
#245 = VERTEX_POINT ( 'NONE', #18 ) ;
#246 = EDGE_LOOP ( 'NONE', ( #159, #36 ) ) ;
#247 = DIRECTION ( 'NONE',  ( -3.491481338843133355E-15, 1.224646799147353207E-16, -1.000000000000000000 ) ) ;
#248 = DIRECTION ( 'NONE',  ( 4.275831445896958607E-31, 1.000000000000000000, 1.224646799147353207E-16 ) ) ;
#249 = CARTESIAN_POINT ( 'NONE',  ( 1.414962237524462668E-14, -1.499999999999997558, 8.000000000000000000 ) ) ;
#250 = CC_DESIGN_PERSON_AND_ORGANIZATION_ASSIGNMENT ( #189, #219, ( #73 ) ) ;
#251 = CARTESIAN_POINT ( 'NONE',  ( 0.000000000000000000, 0.000000000000000000, 0.000000000000000000 ) ) ;
#252 = ORIENTED_EDGE ( 'NONE', *, *, #182, .F. ) ;
#253 = DIRECTION ( 'NONE',  ( 0.000000000000000000, 1.000000000000000000, 0.000000000000000000 ) ) ;
#254 = PRODUCT ( '372729', '372729', '', ( #234 ) ) ;
#255 = ORIENTED_EDGE ( 'NONE', *, *, #5, .F. ) ;
#256 = PLANE ( 'NONE',  #14 ) ;
#257 = ORIENTED_EDGE ( 'NONE', *, *, #212, .T. ) ;
#258 = CARTESIAN_POINT ( 'NONE',  ( 1.047444401652940007E-13, 8.998558695971084067E-33, 30.00000000000000000 ) ) ;
#259 = LINE ( 'NONE', #13, #117 ) ;
#260 = DIRECTION ( 'NONE',  ( -3.491481338843133355E-15, 1.224646799147353207E-16, -1.000000000000000000 ) ) ;
#261 = ORIENTED_EDGE ( 'NONE', *, *, #231, .T. ) ;
#262 = DATE_AND_TIME ( #311, #209 ) ;
#263 = CARTESIAN_POINT ( 'NONE',  ( 6.599812025706510020E-14, -1.500000000000002887, 29.69999999999999574 ) ) ;
#264 = CC_DESIGN_APPROVAL ( #218, ( #195 ) ) ;
#265 = CONICAL_SURFACE ( 'NONE', #60, 1.199999999999999289, 0.7853981633974453924 ) ;
#266 = ADVANCED_FACE ( 'NONE', ( #61 ), #34, .T. ) ;
#267 = COORDINATED_UNIVERSAL_TIME_OFFSET ( 1, 0, .AHEAD. ) ;
#268 = DIRECTION ( 'NONE',  ( 0.000000000000000000, 1.000000000000000000, 0.000000000000000000 ) ) ;
#269 = ADVANCED_FACE ( 'NONE', ( #160 ), #58, .T. ) ;
#270 = SHAPE_DEFINITION_REPRESENTATION ( #206, #16 ) ;
#271 = DIRECTION ( 'NONE',  ( 0.000000000000000000, 1.000000000000000000, 0.000000000000000000 ) ) ;
#272 = ORIENTED_EDGE ( 'NONE', *, *, #164, .T. ) ;
#273 = CC_DESIGN_DATE_AND_TIME_ASSIGNMENT ( #307, #64, ( #73 ) ) ;
#274 = ADVANCED_FACE ( 'NONE', ( #110 ), #256, .F. ) ;
#275 = CARTESIAN_POINT ( 'NONE',  ( 1.047444401652940007E-13, -3.673940397442059178E-15, 30.00000000000000000 ) ) ;
#276 = ADVANCED_FACE ( 'NONE', ( #286 ), #82, .T. ) ;
#277 = CARTESIAN_POINT ( 'NONE',  ( 2.793185071074506684E-14, -9.797174393178825657E-16, 8.000000000000000000 ) ) ;
#278 = EDGE_CURVE ( 'NONE', #84, #29, #259, .T. ) ;
#279 = DIRECTION ( 'NONE',  ( -3.491481338843133355E-15, 1.224646799147353207E-16, -1.000000000000000000 ) ) ;
#280 = ORIENTED_EDGE ( 'NONE', *, *, #212, .F. ) ;
#281 = DIRECTION ( 'NONE',  ( 4.275831445896959482E-31, 1.000000000000000000, 1.224646799147353207E-16 ) ) ;
#282 = CARTESIAN_POINT ( 'NONE',  ( 0.000000000000000000, 0.000000000000000000, 0.000000000000000000 ) ) ;
#283 = LOCAL_TIME ( 9, 8, 55.00000000000000000, #172 ) ;
#284 = CARTESIAN_POINT ( 'NONE',  ( 1.836970198721020813E-16, -1.499999999999997780, -1.836970198721033385E-16 ) ) ;
#285 = ORIENTED_EDGE ( 'NONE', *, *, #123, .F. ) ;
#286 = FACE_OUTER_BOUND ( 'NONE', #246, .T. ) ;
#287 = ORIENTED_EDGE ( 'NONE', *, *, #115, .F. ) ;
#288 = EDGE_LOOP ( 'NONE', ( #22, #304 ) ) ;
#289 = APPROVAL_STATUS ( 'not_yet_approved' ) ;
#290 = DATE_AND_TIME ( #308, #76 ) ;
#291 = CARTESIAN_POINT ( 'NONE',  ( 1.047444401652940007E-13, -3.673940397442059178E-15, 30.00000000000000000 ) ) ;
#292 = AXIS2_PLACEMENT_3D ( 'NONE', #201, #96, #224 ) ;
#293 = DIRECTION ( 'NONE',  ( -3.491481338843133355E-15, 1.224646799147353207E-16, -1.000000000000000000 ) ) ;
#294 = COORDINATED_UNIVERSAL_TIME_OFFSET ( 1, 0, .AHEAD. ) ;
#295 = DIRECTION ( 'NONE',  ( 0.000000000000000000, 1.000000000000000000, 0.000000000000000000 ) ) ;
#296 = EDGE_LOOP ( 'NONE', ( #287, #90 ) ) ;
#297 = DIRECTION ( 'NONE',  ( -3.491481338843133355E-15, 1.224646799147353207E-16, -1.000000000000000000 ) ) ;
#298 = LOCAL_TIME ( 9, 8, 55.00000000000000000, #294 ) ;
#299 = CIRCLE ( 'NONE', #166, 1.499999999999996669 ) ;
#300 = CARTESIAN_POINT ( 'NONE',  ( 2.793185071074506684E-14, 1.124819836996388964E-32, 8.000000000000000000 ) ) ;
#301 = ORIENTED_EDGE ( 'NONE', *, *, #139, .T. ) ;
#302 = CC_DESIGN_PERSON_AND_ORGANIZATION_ASSIGNMENT ( #191, #41, ( #71 ) ) ;
#303 = FACE_OUTER_BOUND ( 'NONE', #296, .T. ) ;
#304 = ORIENTED_EDGE ( 'NONE', *, *, #107, .T. ) ;
#305 = DIRECTION ( 'NONE',  ( -4.275831445896958607E-31, -1.000000000000000000, -1.224646799147353207E-16 ) ) ;
#306 = UNCERTAINTY_MEASURE_WITH_UNIT (LENGTH_MEASURE( 1.000000000000000082E-05 ), #156, 'distance_accuracy_value', 'NONE');
#307 = DATE_AND_TIME ( #216, #9 ) ;
#308 = CALENDAR_DATE ( 2023, 31, 3 ) ;
#309 = AXIS2_PLACEMENT_3D ( 'NONE', #277, #226, #1 ) ;
#310 = PRODUCT_RELATED_PRODUCT_CATEGORY ( 'detail', '', ( #254 ) ) ;
#311 = CALENDAR_DATE ( 2023, 31, 3 ) ;
#312 = LINE ( 'NONE', #193, #59 ) ;
#313 = MANIFOLD_SOLID_BREP ( 'Corps-Déplacer/Copier1[2]', #168 ) ;
ENDSEC;
END-ISO-10303-21;
