ISO-10303-21;
HEADER;
FILE_DESCRIPTION (( 'STEP AP203' ),
    '1' );
FILE_NAME ('372728.step',
    '2023-03-31T07:08:55',
    ( '' ),
    ( '' ),
    'SwSTEP 2.0',
    'SolidWorks 2022',
    '' );
FILE_SCHEMA (( 'CONFIG_CONTROL_DESIGN' ));
ENDSEC;

DATA;
#1 = DIRECTION ( 'NONE',  ( 4.275831445896958607E-31, 1.000000000000000000, 1.224646799147353207E-16 ) ) ;
#2 = LOCAL_TIME ( 9, 8, 55.00000000000000000, #173 ) ;
#3 = DIRECTION ( 'NONE',  ( -3.491481338843133355E-15, 1.224646799147353207E-16, -1.000000000000000000 ) ) ;
#4 = EDGE_CURVE ( 'NONE', #166, #114, #208, .T. ) ;
#5 = CALENDAR_DATE ( 2023, 31, 3 ) ;
#6 = DIRECTION ( 'NONE',  ( 4.275831445896958607E-31, 1.000000000000000000, 1.224646799147353207E-16 ) ) ;
#7 = CIRCLE ( 'NONE', #93, 1.499999999999996447 ) ;
#8 = PERSON_AND_ORGANIZATION_ROLE ( 'creator' ) ;
#9 = ORIENTED_EDGE ( 'NONE', *, *, #267, .T. ) ;
#10 = CARTESIAN_POINT ( 'NONE',  ( 1.745740669421566678E-14, -6.123233995736766282E-16, 5.000000000000000000 ) ) ;
#11 = DIRECTION ( 'NONE',  ( -3.491481338843133355E-15, 1.224646799147353207E-16, -1.000000000000000000 ) ) ;
#12 = CIRCLE ( 'NONE', #180, 1.500000000000000888 ) ;
#13 = APPROVAL ( #249, 'UNSPECIFIED' ) ;
#14 = CYLINDRICAL_SURFACE ( 'NONE', #294, 1.499999999999996003 ) ;
#15 = PERSON_AND_ORGANIZATION ( #145, #38 ) ;
#16 = DIRECTION ( 'NONE',  ( -3.491481338843133355E-15, 1.224646799147353207E-16, -1.000000000000000000 ) ) ;
#17 = PRODUCT_RELATED_PRODUCT_CATEGORY ( 'detail', '', ( #280 ) ) ;
#18 = CIRCLE ( 'NONE', #141, 1.499999999999996447 ) ;
#19 = CC_DESIGN_PERSON_AND_ORGANIZATION_ASSIGNMENT ( #77, #278, ( #70 ) ) ;
#20 = DIRECTION ( 'NONE',  ( 4.275831445896958607E-31, 1.000000000000000000, 1.224646799147353207E-16 ) ) ;
#21 = ORIENTED_EDGE ( 'NONE', *, *, #4, .T. ) ;
#22 = CARTESIAN_POINT ( 'NONE',  ( 0.000000000000000000, 0.000000000000000000, 0.000000000000000000 ) ) ;
#23 = AXIS2_PLACEMENT_3D ( 'NONE', #118, #116, #67 ) ;
#24 = CC_DESIGN_DATE_AND_TIME_ASSIGNMENT ( #224, #73, ( #32 ) ) ;
#25 = CALENDAR_DATE ( 2023, 31, 3 ) ;
#26 = FACE_OUTER_BOUND ( 'NONE', #54, .T. ) ;
#27 = EDGE_CURVE ( 'NONE', #123, #313, #37, .T. ) ;
#28 = ORIENTED_EDGE ( 'NONE', *, *, #155, .F. ) ;
#29 = MECHANICAL_CONTEXT ( 'NONE', #276, 'mechanical' ) ;
#30 = DATE_AND_TIME ( #228, #168 ) ;
#31 = ORIENTED_EDGE ( 'NONE', *, *, #201, .F. ) ;
#32 = SECURITY_CLASSIFICATION ( '', '', #209 ) ;
#33 = CARTESIAN_POINT ( 'NONE',  ( 1.326762908760390423E-13, 8.998558695971084067E-33, 38.00000000000000000 ) ) ;
#34 = DIRECTION ( 'NONE',  ( 0.000000000000000000, 1.000000000000000000, 0.000000000000000000 ) ) ;
#35 = APPROVAL ( #149, 'UNSPECIFIED' ) ;
#36 = APPROVAL_DATE_TIME ( #132, #129 ) ;
#37 = CIRCLE ( 'NONE', #304, 1.499999999999996447 ) ;
#38 = ORGANIZATION ( 'UNSPECIFIED', 'UNSPECIFIED', '' ) ;
#39 = PLANE ( 'NONE',  #312 ) ;
#40 = CC_DESIGN_PERSON_AND_ORGANIZATION_ASSIGNMENT ( #177, #171, ( #280 ) ) ;
#41 = AXIS2_PLACEMENT_3D ( 'NONE', #288, #217, #134 ) ;
#42 = CARTESIAN_POINT ( 'NONE',  ( 1.326762908760390423E-13, -4.653657836759941941E-15, 38.00000000000000000 ) ) ;
#43 = EDGE_LOOP ( 'NONE', ( #100, #47, #119, #205 ) ) ;
#44 = CIRCLE ( 'NONE', #117, 1.499999999999996447 ) ;
#45 = EDGE_LOOP ( 'NONE', ( #172, #268, #72, #202 ) ) ;
#46 = PERSON_AND_ORGANIZATION_ROLE ( 'classification_officer' ) ;
#47 = ORIENTED_EDGE ( 'NONE', *, *, #89, .T. ) ;
#48 = APPROVAL_DATE_TIME ( #302, #13 ) ;
#49 = FACE_OUTER_BOUND ( 'NONE', #45, .T. ) ;
#50 = ORIENTED_EDGE ( 'NONE', *, *, #120, .T. ) ;
#51 = COORDINATED_UNIVERSAL_TIME_OFFSET ( 1, 0, .AHEAD. ) ;
#52 = DIRECTION ( 'NONE',  ( -3.491481338843133355E-15, 1.224646799147353207E-16, -1.000000000000000000 ) ) ;
#53 = PERSON_AND_ORGANIZATION ( #145, #38 ) ;
#54 = EDGE_LOOP ( 'NONE', ( #242, #279 ) ) ;
#55 = AXIS2_PLACEMENT_3D ( 'NONE', #303, #188, #236 ) ;
#56 = FACE_OUTER_BOUND ( 'NONE', #91, .T. ) ;
#57 = CARTESIAN_POINT ( 'NONE',  ( 1.745740669421566678E-14, 1.124819836996389648E-32, 5.000000000000000000 ) ) ;
#58 = AXIS2_PLACEMENT_3D ( 'NONE', #271, #94, #6 ) ;
#59 = DIRECTION ( 'NONE',  ( -3.491481338843133355E-15, 1.224646799147353207E-16, -1.000000000000000000 ) ) ;
#60 = DIRECTION ( 'NONE',  ( -3.491481338843133355E-15, 1.224646799147353207E-16, -1.000000000000000000 ) ) ;
#61 = DIRECTION ( 'NONE',  ( -3.491481338843133355E-15, 1.224646799147353207E-16, -1.000000000000000000 ) ) ;
#62 = ORIENTED_EDGE ( 'NONE', *, *, #201, .T. ) ;
#63 = AXIS2_PLACEMENT_3D ( 'NONE', #185, #11, #310 ) ;
#64 = DIRECTION ( 'NONE',  ( 4.275831445896958607E-31, 1.000000000000000000, 1.224646799147353207E-16 ) ) ;
#65 = ORIENTED_EDGE ( 'NONE', *, *, #27, .T. ) ;
#66 = UNCERTAINTY_MEASURE_WITH_UNIT (LENGTH_MEASURE( 1.000000000000000082E-05 ), #239, 'distance_accuracy_value', 'NONE');
#67 = DIRECTION ( 'NONE',  ( 0.000000000000000000, 1.000000000000000000, 0.000000000000000000 ) ) ;
#68 = CLOSED_SHELL ( 'NONE', ( #115, #269, #105, #140 ) ) ;
#69 = LINE ( 'NONE', #220, #286 ) ;
#70 = PRODUCT_DEFINITION ( 'UNKNOWN', '', #157, #192 ) ;
#71 = CARTESIAN_POINT ( 'NONE',  ( 0.000000000000000000, 0.000000000000000000, 0.000000000000000000 ) ) ;
#72 = ORIENTED_EDGE ( 'NONE', *, *, #195, .F. ) ;
#73 = DATE_TIME_ROLE ( 'classification_date' ) ;
#74 = CARTESIAN_POINT ( 'NONE',  ( 1.326762908760390423E-13, -4.653657836759941941E-15, 38.00000000000000000 ) ) ;
#75 = PLANE ( 'NONE',  #76 ) ;
#76 = AXIS2_PLACEMENT_3D ( 'NONE', #33, #124, #1 ) ;
#77 = PERSON_AND_ORGANIZATION ( #145, #38 ) ;
#78 = DIRECTION ( 'NONE',  ( 0.000000000000000000, 1.000000000000000000, 0.000000000000000000 ) ) ;
#79 = ADVANCED_FACE ( 'NONE', ( #26 ), #75, .F. ) ;
#80 = ORIENTED_EDGE ( 'NONE', *, *, #282, .F. ) ;
#81 = PLANE ( 'NONE',  #41 ) ;
#82 = CC_DESIGN_APPROVAL ( #13, ( #70 ) ) ;
#83 = APPROVAL_STATUS ( 'not_yet_approved' ) ;
#84 = CARTESIAN_POINT ( 'NONE',  ( 1.745740669421566678E-14, 1.499999999999995781, 5.000000000000000000 ) ) ;
#85 = DIRECTION ( 'NONE',  ( 3.491481338843133355E-15, -1.224646799147353207E-16, 1.000000000000000000 ) ) ;
#86 = ADVANCED_FACE ( 'NONE', ( #176 ), #275, .T. ) ;
#87 = CARTESIAN_POINT ( 'NONE',  ( 1.316288464743861212E-13, 1.499999999999996447, 37.69999999999999574 ) ) ;
#88 = ADVANCED_FACE ( 'NONE', ( #49 ), #121, .T. ) ;
#89 = EDGE_CURVE ( 'NONE', #232, #103, #151, .T. ) ;
#90 = ORIENTED_EDGE ( 'NONE', *, *, #126, .T. ) ;
#91 = EDGE_LOOP ( 'NONE', ( #98, #9, #21, #31 ) ) ;
#92 = DIRECTION ( 'NONE',  ( -3.491481338843133355E-15, 1.224646799147353207E-16, -1.000000000000000000 ) ) ;
#93 = AXIS2_PLACEMENT_3D ( 'NONE', #110, #215, #257 ) ;
#94 = DIRECTION ( 'NONE',  ( -3.491481338843133355E-15, 1.224646799147353207E-16, -1.000000000000000000 ) ) ;
#95 = MANIFOLD_SOLID_BREP ( 'Corps-Déplacer/Copier1[1]', #107 ) ;
#96 = PERSON_AND_ORGANIZATION_ROLE ( 'design_supplier' ) ;
#97 = DIRECTION ( 'NONE',  ( 0.000000000000000000, 1.000000000000000000, 0.000000000000000000 ) ) ;
#98 = ORIENTED_EDGE ( 'NONE', *, *, #235, .F. ) ;
#99 = APPLICATION_PROTOCOL_DEFINITION ( 'international standard', 'config_control_design', 1994, #204 ) ;
#100 = ORIENTED_EDGE ( 'NONE', *, *, #104, .F. ) ;
#101 = CIRCLE ( 'NONE', #281, 1.500000000000000888 ) ;
#102 = PERSON_AND_ORGANIZATION ( #145, #38 ) ;
#103 = VERTEX_POINT ( 'NONE', #152 ) ;
#104 = EDGE_CURVE ( 'NONE', #232, #250, #237, .T. ) ;
#105 = ADVANCED_FACE ( 'NONE', ( #210 ), #14, .T. ) ;
#106 = CARTESIAN_POINT ( 'NONE',  ( 1.316288464743861212E-13, -4.616918432785521081E-15, 37.69999999999999574 ) ) ;
#107 = CLOSED_SHELL ( 'NONE', ( #88, #86, #131, #227, #238, #79 ) ) ;
#108 = DIRECTION ( 'NONE',  ( -3.491481338843133355E-15, 1.224646799147353207E-16, -1.000000000000000000 ) ) ;
#109 = FACE_OUTER_BOUND ( 'NONE', #253, .T. ) ;
#110 = CARTESIAN_POINT ( 'NONE',  ( 1.745740669421566678E-14, -6.123233995736766282E-16, 5.000000000000000000 ) ) ;
#111 = VECTOR ( 'NONE', #159, 1000.000000000000000 ) ;
#112 = AXIS2_PLACEMENT_3D ( 'NONE', #71, #298, #128 ) ;
#113 =( NAMED_UNIT ( * ) PLANE_ANGLE_UNIT ( ) SI_UNIT ( $, .RADIAN. ) );
#114 = VERTEX_POINT ( 'NONE', #84 ) ;
#115 = ADVANCED_FACE ( 'NONE', ( #263 ), #283, .T. ) ;
#116 = DIRECTION ( 'NONE',  ( -3.491481338843133355E-15, 1.224646799147353207E-16, -1.000000000000000000 ) ) ;
#117 = AXIS2_PLACEMENT_3D ( 'NONE', #233, #181, #34 ) ;
#118 = CARTESIAN_POINT ( 'NONE',  ( 1.326762908760390423E-13, -4.653657836759941941E-15, 38.00000000000000000 ) ) ;
#119 = ORIENTED_EDGE ( 'NONE', *, *, #216, .T. ) ;
#120 = EDGE_CURVE ( 'NONE', #123, #127, #285, .T. ) ;
#121 = CONICAL_SURFACE ( 'NONE', #255, 1.200000000000001066, 0.7853981633974453924 ) ;
#122 = DATE_AND_TIME ( #5, #162 ) ;
#123 = VERTEX_POINT ( 'NONE', #160 ) ;
#124 = DIRECTION ( 'NONE',  ( -3.491481338843133355E-15, 1.224646799147353207E-16, -1.000000000000000000 ) ) ;
#125 = DATE_TIME_ROLE ( 'creation_date' ) ;
#126 = EDGE_CURVE ( 'NONE', #313, #123, #7, .T. ) ;
#127 = VERTEX_POINT ( 'NONE', #183 ) ;
#128 = DIRECTION ( 'NONE',  ( 1.000000000000000000, 0.000000000000000000, 0.000000000000000000 ) ) ;
#129 = APPROVAL ( #83, 'UNSPECIFIED' ) ;
#130 = CARTESIAN_POINT ( 'NONE',  ( 7.472682360417295253E-14, -1.499999999999996891, 5.000000000000000000 ) ) ;
#131 = ADVANCED_FACE ( 'NONE', ( #161 ), #81, .F. ) ;
#132 = DATE_AND_TIME ( #137, #301 ) ;
#133 = CARTESIAN_POINT ( 'NONE',  ( 1.328232484919367446E-13, -1.200000000000005507, 38.00000000000000000 ) ) ;
#134 = DIRECTION ( 'NONE',  ( -4.275831445896958607E-31, -1.000000000000000000, -1.224646799147353207E-16 ) ) ;
#135 = CIRCLE ( 'NONE', #272, 1.499999999999995559 ) ;
#136 = CC_DESIGN_PERSON_AND_ORGANIZATION_ASSIGNMENT ( #203, #8, ( #157 ) ) ;
#137 = CALENDAR_DATE ( 2023, 31, 3 ) ;
#138 = CARTESIAN_POINT ( 'NONE',  ( 0.000000000000000000, 0.000000000000000000, 0.000000000000000000 ) ) ;
#139 = DIRECTION ( 'NONE',  ( -3.491481338843133355E-15, 1.224646799147353207E-16, -1.000000000000000000 ) ) ;
#140 = ADVANCED_FACE ( 'NONE', ( #109 ), #308, .T. ) ;
#141 = AXIS2_PLACEMENT_3D ( 'NONE', #10, #163, #262 ) ;
#142 = AXIS2_PLACEMENT_3D ( 'NONE', #42, #139, #190 ) ;
#143 = ORIENTED_EDGE ( 'NONE', *, *, #4, .F. ) ;
#144 = DIRECTION ( 'NONE',  ( -3.491481338843133355E-15, 1.224646799147353207E-16, -1.000000000000000000 ) ) ;
#145 = PERSON ( 'UNSPECIFIED', 'UNSPECIFIED', 'UNSPECIFIED', ('UNSPECIFIED'), ('UNSPECIFIED'), ('UNSPECIFIED') ) ;
#146 = APPLICATION_PROTOCOL_DEFINITION ( 'international standard', 'config_control_design', 1994, #276 ) ;
#147 = EDGE_LOOP ( 'NONE', ( #90, #50, #80, #223 ) ) ;
#148 = COORDINATED_UNIVERSAL_TIME_OFFSET ( 1, 0, .AHEAD. ) ;
#149 = APPROVAL_STATUS ( 'not_yet_approved' ) ;
#150 = CARTESIAN_POINT ( 'NONE',  ( 1.326762908760390423E-13, -4.653657836759941941E-15, 38.00000000000000000 ) ) ;
#151 = CIRCLE ( 'NONE', #259, 1.200000000000001066 ) ;
#152 = CARTESIAN_POINT ( 'NONE',  ( 1.326762908760390423E-13, 1.199999999999996403, 38.00000000000000000 ) ) ;
#153 = CC_DESIGN_PERSON_AND_ORGANIZATION_ASSIGNMENT ( #102, #96, ( #157 ) ) ;
#154 = APPROVAL_ROLE ( '' ) ;
#155 = EDGE_CURVE ( 'NONE', #127, #221, #212, .T. ) ;
#156 = DIRECTION ( 'NONE',  ( -3.491481338843133355E-15, 1.224646799147353207E-16, -1.000000000000000000 ) ) ;
#157 = PRODUCT_DEFINITION_FORMATION_WITH_SPECIFIED_SOURCE ( 'ANY', '', #280, .NOT_KNOWN. ) ;
#158 = VECTOR ( 'NONE', #213, 1000.000000000000114 ) ;
#159 = DIRECTION ( 'NONE',  ( -2.382254525458723780E-15, -0.7071067811865453523, -0.7071067811865496822 ) ) ;
#160 = CARTESIAN_POINT ( 'NONE',  ( 8.912400366979928222E-15, -1.499999999999997113, 5.000000000000000000 ) ) ;
#161 = FACE_OUTER_BOUND ( 'NONE', #191, .T. ) ;
#162 = LOCAL_TIME ( 9, 8, 55.00000000000000000, #51 ) ;
#163 = DIRECTION ( 'NONE',  ( -3.491481338843133355E-15, 1.224646799147353207E-16, -1.000000000000000000 ) ) ;
#164 = DIRECTION ( 'NONE',  ( 0.000000000000000000, 1.000000000000000000, 0.000000000000000000 ) ) ;
#165 = EDGE_CURVE ( 'NONE', #313, #221, #260, .T. ) ;
#166 = VERTEX_POINT ( 'NONE', #87 ) ;
#167 = AXIS2_PLACEMENT_3D ( 'NONE', #57, #85, #186 ) ;
#168 = LOCAL_TIME ( 9, 8, 55.00000000000000000, #148 ) ;
#169 = CARTESIAN_POINT ( 'NONE',  ( 1.323178959930974653E-13, -1.200000000000005507, 38.00000000000000000 ) ) ;
#170 = CARTESIAN_POINT ( 'NONE',  ( 1.316288464743861212E-13, -4.616918432785521081E-15, 37.69999999999999574 ) ) ;
#171 = PERSON_AND_ORGANIZATION_ROLE ( 'design_owner' ) ;
#172 = ORIENTED_EDGE ( 'NONE', *, *, #277, .T. ) ;
#173 = COORDINATED_UNIVERSAL_TIME_OFFSET ( 1, 0, .AHEAD. ) ;
#174 = DIRECTION ( 'NONE',  ( 0.000000000000000000, 1.000000000000000000, 0.000000000000000000 ) ) ;
#175 =( GEOMETRIC_REPRESENTATION_CONTEXT ( 3 ) GLOBAL_UNCERTAINTY_ASSIGNED_CONTEXT ( ( #66 ) ) GLOBAL_UNIT_ASSIGNED_CONTEXT ( ( #239, #113, #293 ) ) REPRESENTATION_CONTEXT ( 'NONE', 'WORKASPACE' ) );
#176 = FACE_OUTER_BOUND ( 'NONE', #225, .T. ) ;
#177 = PERSON_AND_ORGANIZATION ( #145, #38 ) ;
#178 = ORIENTED_EDGE ( 'NONE', *, *, #195, .T. ) ;
#179 = SHAPE_DEFINITION_REPRESENTATION ( #211, #274 ) ;
#180 = AXIS2_PLACEMENT_3D ( 'NONE', #106, #60, #164 ) ;
#181 = DIRECTION ( 'NONE',  ( -3.491481338843133355E-15, 1.224646799147353207E-16, -1.000000000000000000 ) ) ;
#182 = CONICAL_SURFACE ( 'NONE', #23, 1.200000000000001066, 0.7853981633974453924 ) ;
#183 = CARTESIAN_POINT ( 'NONE',  ( 8.912400366979931377E-15, -1.499999999999995559, -5.510947490026183873E-16 ) ) ;
#184 = EDGE_CURVE ( 'NONE', #114, #198, #18, .T. ) ;
#185 = CARTESIAN_POINT ( 'NONE',  ( -1.282762315192432113E-30, 4.499324529936545246E-32, -3.673977291304848502E-16 ) ) ;
#186 = DIRECTION ( 'NONE',  ( -4.275831445896958607E-31, -1.000000000000000000, -1.224646799147353207E-16 ) ) ;
#187 = AXIS2_PLACEMENT_3D ( 'NONE', #22, #92, #20 ) ;
#188 = DIRECTION ( 'NONE',  ( -3.491481338843133355E-15, 1.224646799147353207E-16, -1.000000000000000000 ) ) ;
#189 = DIRECTION ( 'NONE',  ( 0.000000000000000000, 1.000000000000000000, 0.000000000000000000 ) ) ;
#190 = DIRECTION ( 'NONE',  ( 0.000000000000000000, 1.000000000000000000, 0.000000000000000000 ) ) ;
#191 = EDGE_LOOP ( 'NONE', ( #297, #62 ) ) ;
#192 = DESIGN_CONTEXT ( 'detailed design', #204, 'design' ) ;
#193 = CC_DESIGN_APPROVAL ( #129, ( #32 ) ) ;
#194 = FACE_OUTER_BOUND ( 'NONE', #43, .T. ) ;
#195 = EDGE_CURVE ( 'NONE', #166, #250, #12, .T. ) ;
#196 = CARTESIAN_POINT ( 'NONE',  ( -6.413811575962160563E-31, 2.249662264968272623E-32, -1.836988645652424251E-16 ) ) ;
#197 = ORIENTED_EDGE ( 'NONE', *, *, #120, .F. ) ;
#198 = VERTEX_POINT ( 'NONE', #130 ) ;
#199 = VECTOR ( 'NONE', #156, 1000.000000000000000 ) ;
#200 = CC_DESIGN_APPROVAL ( #35, ( #157 ) ) ;
#201 = EDGE_CURVE ( 'NONE', #198, #114, #44, .T. ) ;
#202 = ORIENTED_EDGE ( 'NONE', *, *, #216, .F. ) ;
#203 = PERSON_AND_ORGANIZATION ( #145, #38 ) ;
#204 = APPLICATION_CONTEXT ( 'configuration controlled 3d designs of mechanical parts and assemblies' ) ;
#205 = ORIENTED_EDGE ( 'NONE', *, *, #267, .F. ) ;
#206 = ORIENTED_EDGE ( 'NONE', *, *, #155, .T. ) ;
#207 = APPROVAL_PERSON_ORGANIZATION ( #273, #13, #154 ) ;
#208 = LINE ( 'NONE', #299, #199 ) ;
#209 = SECURITY_CLASSIFICATION_LEVEL ( 'unclassified' ) ;
#210 = FACE_OUTER_BOUND ( 'NONE', #246, .T. ) ;
#211 = PRODUCT_DEFINITION_SHAPE ( 'NONE', 'NONE',  #70 ) ;
#212 = CIRCLE ( 'NONE', #63, 1.499999999999995559 ) ;
#213 = DIRECTION ( 'NONE',  ( -2.468850131082271655E-15, 0.7071067811865455743, -0.7071067811865493491 ) ) ;
#214 = DIRECTION ( 'NONE',  ( 4.275831445896958607E-31, 1.000000000000000000, 1.224646799147353207E-16 ) ) ;
#215 = DIRECTION ( 'NONE',  ( -3.491481338843133355E-15, 1.224646799147353207E-16, -1.000000000000000000 ) ) ;
#216 = EDGE_CURVE ( 'NONE', #103, #166, #234, .T. ) ;
#217 = DIRECTION ( 'NONE',  ( 3.491481338843133355E-15, -1.224646799147353207E-16, 1.000000000000000000 ) ) ;
#218 = MANIFOLD_SOLID_BREP ( 'Corps-Déplacer/Copier1[2]', #68 ) ;
#219 = FACE_OUTER_BOUND ( 'NONE', #229, .T. ) ;
#220 = CARTESIAN_POINT ( 'NONE',  ( 1.836970198721021799E-16, -1.499999999999998668, -1.836970198721034618E-16 ) ) ;
#221 = VERTEX_POINT ( 'NONE', #306 ) ;
#222 = DIRECTION ( 'NONE',  ( 3.491481338843133355E-15, -1.224646799147353207E-16, 1.000000000000000000 ) ) ;
#223 = ORIENTED_EDGE ( 'NONE', *, *, #165, .F. ) ;
#224 = DATE_AND_TIME ( #25, #292 ) ;
#225 = EDGE_LOOP ( 'NONE', ( #178, #289, #256, #143 ) ) ;
#226 = CC_DESIGN_DATE_AND_TIME_ASSIGNMENT ( #122, #125, ( #70 ) ) ;
#227 = ADVANCED_FACE ( 'NONE', ( #56 ), #258, .T. ) ;
#228 = CALENDAR_DATE ( 2023, 31, 3 ) ;
#229 = EDGE_LOOP ( 'NONE', ( #265, #206 ) ) ;
#230 = ORIENTED_EDGE ( 'NONE', *, *, #165, .T. ) ;
#231 = APPROVAL_DATE_TIME ( #30, #35 ) ;
#232 = VERTEX_POINT ( 'NONE', #169 ) ;
#233 = CARTESIAN_POINT ( 'NONE',  ( 1.745740669421566678E-14, -6.123233995736766282E-16, 5.000000000000000000 ) ) ;
#234 = LINE ( 'NONE', #284, #158 ) ;
#235 = EDGE_CURVE ( 'NONE', #250, #198, #69, .T. ) ;
#236 = DIRECTION ( 'NONE',  ( 4.275831445896958607E-31, 1.000000000000000000, 1.224646799147353207E-16 ) ) ;
#237 = LINE ( 'NONE', #133, #111 ) ;
#238 = ADVANCED_FACE ( 'NONE', ( #194 ), #182, .T. ) ;
#239 =( LENGTH_UNIT ( ) NAMED_UNIT ( * ) SI_UNIT ( .MILLI., .METRE. ) );
#240 = APPROVAL_PERSON_ORGANIZATION ( #15, #129, #309 ) ;
#241 = ORIENTED_EDGE ( 'NONE', *, *, #126, .F. ) ;
#242 = ORIENTED_EDGE ( 'NONE', *, *, #277, .F. ) ;
#243 = CARTESIAN_POINT ( 'NONE',  ( -1.282762315192432113E-30, 4.499324529936545246E-32, -3.673977291304848502E-16 ) ) ;
#244 = VECTOR ( 'NONE', #108, 1000.000000000000000 ) ;
#245 = DIRECTION ( 'NONE',  ( -4.275831445896958607E-31, -1.000000000000000000, -1.224646799147353207E-16 ) ) ;
#246 = EDGE_LOOP ( 'NONE', ( #197, #65, #230, #28 ) ) ;
#247 = COORDINATED_UNIVERSAL_TIME_OFFSET ( 1, 0, .AHEAD. ) ;
#248 = ORIENTED_EDGE ( 'NONE', *, *, #27, .F. ) ;
#249 = APPROVAL_STATUS ( 'not_yet_approved' ) ;
#250 = VERTEX_POINT ( 'NONE', #311 ) ;
#251 = CIRCLE ( 'NONE', #142, 1.200000000000001066 ) ;
#252 = CARTESIAN_POINT ( 'NONE',  ( 1.745740669421566678E-14, -6.123233995736766282E-16, 5.000000000000000000 ) ) ;
#253 = EDGE_LOOP ( 'NONE', ( #241, #248 ) ) ;
#254 = APPROVAL_ROLE ( '' ) ;
#255 = AXIS2_PLACEMENT_3D ( 'NONE', #150, #3, #97 ) ;
#256 = ORIENTED_EDGE ( 'NONE', *, *, #184, .F. ) ;
#257 = DIRECTION ( 'NONE',  ( 0.000000000000000000, 1.000000000000000000, 0.000000000000000000 ) ) ;
#258 = CYLINDRICAL_SURFACE ( 'NONE', #187, 1.499999999999998668 ) ;
#259 = AXIS2_PLACEMENT_3D ( 'NONE', #74, #52, #174 ) ;
#260 = LINE ( 'NONE', #287, #291 ) ;
#261 = COORDINATED_UNIVERSAL_TIME_OFFSET ( 1, 0, .AHEAD. ) ;
#262 = DIRECTION ( 'NONE',  ( 0.000000000000000000, 1.000000000000000000, 0.000000000000000000 ) ) ;
#263 = FACE_OUTER_BOUND ( 'NONE', #147, .T. ) ;
#264 = CARTESIAN_POINT ( 'NONE',  ( 1.745740669421566678E-14, 1.499999999999995781, 5.000000000000000000 ) ) ;
#265 = ORIENTED_EDGE ( 'NONE', *, *, #282, .T. ) ;
#266 = APPROVAL_PERSON_ORGANIZATION ( #53, #35, #254 ) ;
#267 = EDGE_CURVE ( 'NONE', #250, #166, #101, .T. ) ;
#268 = ORIENTED_EDGE ( 'NONE', *, *, #104, .T. ) ;
#269 = ADVANCED_FACE ( 'NONE', ( #219 ), #39, .F. ) ;
#270 = CALENDAR_DATE ( 2023, 31, 3 ) ;
#271 = CARTESIAN_POINT ( 'NONE',  ( 0.000000000000000000, 0.000000000000000000, 0.000000000000000000 ) ) ;
#272 = AXIS2_PLACEMENT_3D ( 'NONE', #243, #144, #64 ) ;
#273 = PERSON_AND_ORGANIZATION ( #145, #38 ) ;
#274 = ADVANCED_BREP_SHAPE_REPRESENTATION ( '372728', ( #95, #218, #112 ), #175 ) ;
#275 = CYLINDRICAL_SURFACE ( 'NONE', #58, 1.499999999999998668 ) ;
#276 = APPLICATION_CONTEXT ( 'configuration controlled 3d designs of mechanical parts and assemblies' ) ;
#277 = EDGE_CURVE ( 'NONE', #103, #232, #251, .T. ) ;
#278 = PERSON_AND_ORGANIZATION_ROLE ( 'creator' ) ;
#279 = ORIENTED_EDGE ( 'NONE', *, *, #89, .F. ) ;
#280 = PRODUCT ( '372728', '372728', '', ( #29 ) ) ;
#281 = AXIS2_PLACEMENT_3D ( 'NONE', #170, #290, #189 ) ;
#282 = EDGE_CURVE ( 'NONE', #221, #127, #135, .T. ) ;
#283 = CYLINDRICAL_SURFACE ( 'NONE', #55, 1.499999999999996003 ) ;
#284 = CARTESIAN_POINT ( 'NONE',  ( 1.326762908760390423E-13, 1.199999999999996403, 38.00000000000000000 ) ) ;
#285 = LINE ( 'NONE', #307, #244 ) ;
#286 = VECTOR ( 'NONE', #61, 1000.000000000000000 ) ;
#287 = CARTESIAN_POINT ( 'NONE',  ( 6.413747168845420394E-31, 1.499999999999996003, 1.836970198721024757E-16 ) ) ;
#288 = CARTESIAN_POINT ( 'NONE',  ( 1.745740669421566678E-14, 1.124819836996389648E-32, 5.000000000000000000 ) ) ;
#289 = ORIENTED_EDGE ( 'NONE', *, *, #235, .T. ) ;
#290 = DIRECTION ( 'NONE',  ( -3.491481338843133355E-15, 1.224646799147353207E-16, -1.000000000000000000 ) ) ;
#291 = VECTOR ( 'NONE', #59, 1000.000000000000000 ) ;
#292 = LOCAL_TIME ( 9, 8, 55.00000000000000000, #247 ) ;
#293 =( NAMED_UNIT ( * ) SI_UNIT ( $, .STERADIAN. ) SOLID_ANGLE_UNIT ( ) );
#294 = AXIS2_PLACEMENT_3D ( 'NONE', #138, #16, #214 ) ;
#295 = DIRECTION ( 'NONE',  ( -3.491481338843133355E-15, 1.224646799147353207E-16, -1.000000000000000000 ) ) ;
#296 = PERSON_AND_ORGANIZATION ( #145, #38 ) ;
#297 = ORIENTED_EDGE ( 'NONE', *, *, #184, .T. ) ;
#298 = DIRECTION ( 'NONE',  ( 0.000000000000000000, 0.000000000000000000, 1.000000000000000000 ) ) ;
#299 = CARTESIAN_POINT ( 'NONE',  ( 6.413747168845432655E-31, 1.499999999999998668, 1.836970198721028208E-16 ) ) ;
#300 = CC_DESIGN_PERSON_AND_ORGANIZATION_ASSIGNMENT ( #296, #46, ( #32 ) ) ;
#301 = LOCAL_TIME ( 9, 8, 55.00000000000000000, #261 ) ;
#302 = DATE_AND_TIME ( #270, #2 ) ;
#303 = CARTESIAN_POINT ( 'NONE',  ( 0.000000000000000000, 0.000000000000000000, 0.000000000000000000 ) ) ;
#304 = AXIS2_PLACEMENT_3D ( 'NONE', #252, #295, #78 ) ;
#305 = CC_DESIGN_SECURITY_CLASSIFICATION ( #32, ( #157 ) ) ;
#306 = CARTESIAN_POINT ( 'NONE',  ( -6.413875983078902484E-31, 1.499999999999995559, -1.837007092583824238E-16 ) ) ;
#307 = CARTESIAN_POINT ( 'NONE',  ( 1.836970198721018594E-16, -1.499999999999996003, -1.836970198721030920E-16 ) ) ;
#308 = PLANE ( 'NONE',  #167 ) ;
#309 = APPROVAL_ROLE ( '' ) ;
#310 = DIRECTION ( 'NONE',  ( 4.275831445896958607E-31, 1.000000000000000000, 1.224646799147353207E-16 ) ) ;
#311 = CARTESIAN_POINT ( 'NONE',  ( 7.472682360417285155E-14, -1.500000000000005329, 37.69999999999999574 ) ) ;
#312 = AXIS2_PLACEMENT_3D ( 'NONE', #196, #222, #245 ) ;
#313 = VERTEX_POINT ( 'NONE', #264 ) ;
ENDSEC;
END-ISO-10303-21;
